Ben Harper - Sexual Healing Chords & Tabs

 

Sexual Healing Chords & Tabs

Ben Harper Chords & Tabs

Version: 2 Type: Chords 0 ratings
1 star 2 stars 3 stars 4 stars 5 stars
comments

Sexual Healing Chords

   
Heya people this would have to be one of my fave songs

x-palm mute
h-hammer
p-pull off

Strum patten

G--down up down
Am--down but let ring
F--down up down
C--down but also let ring

    G              Am                          F

----x----x----x----0----------------------x----0----0----0----|
----2----2----2----1----------------------x----1----1----1----|
----0----0----0----2----------------------x----2----2----2----|
----0----0----0----2--let ring for 1 sec--x----3----3----3----|
----2----2----2----0----------------------x----0----0----0----|
----3----3----3----x----------------------x----x----x----x----|

    C

----0---------------------------------------------------------|
----1---------------------------------------------------------|
----0---------------------------------------------------------|
----2let ring for 1 sec-------0h2p0---------------------------|
----3--------------------0h2------------0h2p0-----------------|
----0---------------------------------------------------------|

  G              Am                 F              C

--x----x----x----0-------------x----0----0----0----0-----------|
--2----2----2----1-------------x----1----1----1----1-----------|
--0----0----0----2-------------x----2----2----2----0-----------|
--0----0----0----2--let ring --x----3----3----3----2-----------|let ring
--2----2----2----0-------------x----0----0----0----3-----------|
--3----3----3----x-------------x----x----x----x----0-----------|


-----------------------|
-----------------------|
-----------------------|
---------0h2p0---------|   Repeat this until the chrous
----0h2---------0h2p0--|
-----------------------|


Chorus            C              E              Am
[ Tab from: http://www.guitartabs.cc/tabs/b/ben_harper/sexual_healing_crd_ver_2.html ]
E-----------------0--0--0--0-----0--0--0--0-----0--0-|
B-----------------1--1--1--1-----0--0--0--0-----1--1-|
G-----------0-----0--0--0--0-----1--1--1--1-----2--2-|
D--0--2--3--------2--2--2--2-----2--2--2--2-----2--2-|
A--------------3--3--3--3--3-----2--2--2--2--0--0--0-|
E-----------------------------0----------------------|


Baby, I'm hot just like your oven
I need some lovin'
And baby, I can't hold it much longer
it's getting stronger and stronger
when I get this feeling I want

Sexual healing
Sexual healing
It makes me feel so fine
It helps to relieve my mind
Sexual healing, is good for us
Sexual healing is something that is so very good for me

Whenever these blue tear drops are falling, oh no
And my emotional stability is leaving me
But there is something I can do
Oh I can get on the telephone and call you up baby
Darling I know you'll be there to relieve me
The love you give to me will free me
So if you don't know the things you're dealing
Well I can tell you darling, oh it's

Sexual healing
Get up, get up, get up, get up
Let's make love tonight
Wake up, wake up, wake up, wake up
'Cause you do it right

Heal me, my darling
Heal me, my darling
Heal me, my darling
Heal me, my darling

Baby,  I got sick this morning
Well a sea was storming inside of me
Baby, I think I'm capsizing
the waves are rising and rising
And when I get this feeling I want

Sexual healing
Sexual healing
It makes me feel so fine,
It helps to relieve the mind,

Sexual healing, is good for us
Sexual healing, darling, is good for us
Oh it's good for us, oh it's so good to me
My baby Whoahohh

Just grab a hold
Come take control
Of my body and mind
Soon we'll be making love
Honey, oh we're feeling fine
You're my medicine open up and let me in

Oh Darling darling, you're so great
I can't wait for you to operate
I can't wait for you to operate
I can't wait for you to operate
I can't wait for you to heal me,
I can'?t wait for you to,
Comments