Ben Harper - Pleasure And Pain Chords & Tabs

 

Pleasure And Pain Chords & Tabs

Ben Harper Chords & Tabs

Version: 1 Type: Tab 0 ratings
1 star 2 stars 3 stars 4 stars 5 stars
comments

Pleasure And Pain Tab

#----------------------------------PLEASE NOTE--------------------------------#
#This file is the author's own work and represents their interpretation of the#
#song. You may only use this file for private study, scholarship, or research.#
#-----------------------------------------------------------------------------#


From: SuperGold@webtv.net
Date: Fri, 19 Jun 1998 16:45:49 -0700
Subject: h/harper_ben/pleasure_and_pain.tab

          PLEASURE AND PAIN
                          by
                 BEN HARPER
                         off
         WELCOME TO THE CRUEL WORLD

His Weissenborn sounds much better on this song, but any accoustic
guitar will sound good.

Verse and solo:
|----------------------------------------------------------------|
|-------3~~~~7--7~~~~3--0--5--3--2----3--------------------------|
|----2--------------------------------------------------0--2-----|
|-0--------------------------------------------0----0------------|
|----------------------------------------------------------------|
|----------------------------------------------------------------|

|--------------------------------|
|-------3------------------------|
|----2--------0--2---------------|
|-0--------0--------0------------|
|--------------------------------|
|--------------------------------|
[ Tab from: http://www.guitartabs.cc/tabs/b/ben_harper/pleasure_and_pain_tab.html ]
I"m leaving here on the morning train
And I will never see this world again

Chorus

How I wonder why the world can be so cold
And if only good die young
Then left me cruel here to grow old

Chorus

And if someday I find my piece of mind
I will share my wealth with all of human kind

Chorus

So if the sun does shine or rain does fall
I give thanks I've had my sight to see through it all

Chorus

Chorus:
|---------------------------------------------------------------|
|-7~~~~3--3-----7~~~~3--5-----7~~~~3--3-------------------------|
|------------------------------------0--------------------------|
|-------------------0-----------------------------------0-------|
|---------------------------------------------------------------|
|---------------------------------------------------------------|

|---------------------------------------------------------------|
|--3~~~5--7~~~3--3--7~~~~3--5--3--5~~~~7------------------------|
|---------------------------------------------------------------|
|---------------------------------------------------------------|
|---------------------------------------------------------------|
|---------------------------------------------------------------|

|---------------------|
|-3--5--3--2--3-------|
|---------------------|
|---------------------|
|---------------------|
|---------------------|

This is a really good song
kevin honda
Comments