Ben Harper - Please Bleed Chords & Tabs

 

Please Bleed Chords & Tabs

Ben Harper Chords & Tabs

Version: 1 Type: Bass Tab 0 ratings
1 star 2 stars 3 stars 4 stars 5 stars
comments

Please Bleed Bass Tab

Song:	Please Bleed
Artist:	Ben Harper 
Album:	Burn to Shine

Tabbed by reubs from new zealand

Verse
A|-5--8--10--0-1-

just before chorus:
A|-5--8--10(hold)-

Chorus
A|-5--5-5----------3-5--5-5----------3-5--5-5----------
E|--------6-6--6-6----------6-6--6-6----------6-6--6-6-
[ Tab from: http://www.guitartabs.cc/tabs/b/ben_harper/please_bleed_btab.html ]
A|--------------------------------------------------
E|-5-6-8--8-8--8-3-3--3-3--5-6--6-6--6-3-3--3-3-5-6-

A|------------------------------
E|-3-3--6--3-3--6-6-6-6-8-8-8-8-

there is also a small fill during the chorus 
at about 2:30 which goes like this:
G|-5-------5---
D|---5-------5-
Comments