Ben Harper - People Lead Chords & Tabs

 

People Lead Chords & Tabs

Ben Harper Chords & Tabs

Version: 1 Type: Bass Tab 0 ratings
1 star 2 stars 3 stars 4 stars 5 stars
comments

People Lead Bass Tab

                              PEOPLE LEAD
              BEN HARPER-dall'album "FIGHT FOR YOUR MIND"        tabulato da STEFANO BERTOCCO
                                                                             sfighengjs@iol.it 
                                                                             04 agosto 2000
                                                                             Treviso, ITALIA


    Intro                                                  Verse        
G---||----------------------|---------------------||--||----------|-----
D---||*--10--8----------10--|--10--8-------------*||--||*-----10--|-----
A---||*---------8h(10)------|---------8h(10)-----*||--||*---------|-----
E---||----------------------|-----------------8---||--||---8------|-----
                                                                        
[ Tab from: http://www.guitartabs.cc/tabs/b/ben_harper/people_lead_btab.html ]
                                                                        
G---------|---------------------|--------------------------||-----------
D------8--|--10--8----------10--|--10--8------------------*||-----------
A---------|---------8h(10)------|---------8h(10)----------*||-----------
E---6-----|---------------------|-----------------8--(7)---||-----------
                                                                        

         Chorus                                                         
G---||---------|-----------|---------------------|
D---||*--------|-----------|--10--8----------10--|
A---||*--------|-----------|---------8h(10)------|
E---||---6--6--|--1--1--1--|---------------------|
                                                                        

                                Ponte                                   
G----------------------||--||------------------------------||-----------
D---10--8-------------*||--||*-------10-----10--8------8--*||-----------
A----------8h(10)-----*||--||*---------------------10-----*||-----------
E------------------8---||--||---6/8------------------------||-----------
Comments