Ben Harper - I Shall Not Walk Alone Chords & Tabs

 

I Shall Not Walk Alone Chords & Tabs

Ben Harper Chords & Tabs

Version: 1 Type: Tab

I Shall Not Walk Alone Tab

   
-------------------------------------------------------------------------------
			     I Shall Not Walk Alone - Ben Harper
-------------------------------------------------------------------------------
Tabbed by: James
Email: jmoore1234

Tuning: Drop D
 Intro                     
e|---------------------------------------------------------------------------|
B|---------------------------------------------------------------------------|
G|---------------------------------------------------------------------------|
D|----------7--7h9--7~-------------------------------------------------------|
A|-----7h9---------------7~--5h7/9--9--7\5--5--------------------------------|
E|-------------5------7-------------9-------5--------------------------------|
[ Tab from: http://www.guitartabs.cc/tabs/b/ben_harper/i_shall_not_walk_alone_tab.html ]
e|---------------------------------------------------------------------------|
B|---------------------------------------------------------------------------|
G|---------------------------------------------------------------------------|
D|----------7--7h9--7~-------------------------------------------------------|
A|-----7h9-------------7/9\7----7--5-------5---------------------------------|
E|-------------5--------------7-------7h9--0---------------------------------|
                                                                             Chorus
e|---------------------------------------------------------------------------|
B|---------------------------------------------------------------------------|
G|---------------------------------------------------------------------------|
D|----------7-------------------7--7h9--7--9---------------------------------|
A|-----7h9-----5-----------7h9----------------5------------------------------|
E|-------------0-------------------5----------0------------------------------| Play 4 times

e|---------------------------------------------------------------------------|
B|---------------------------------------------------------------------------|
G|---------------------------------------------------------------------------|
D|----------7--7h9--7~-------------------------------------------------------|
A|-----7h9---------------7~--5h7/9--9--7\5--5--------------------------------|
E|-------------5------7-------------9-------5--------------------------------| Play 4 times


                Repeat from beginning of chorus






| /  slide up
| \  slide down
| h  hammer-on
| p  pull-off
| ~  vibrato
| +  harmonic
| x  Mute note
===============================================================================