Ben Harper - Fight For Your Mind Chords & Tabs

 

Fight For Your Mind Chords & Tabs

Ben Harper Chords & Tabs

Version: 1 Type: Bass Tab 0 ratings
1 star 2 stars 3 stars 4 stars 5 stars
comments

Fight For Your Mind Bass Tab

                          FIGHT for YOUR MIND
              BEN HARPER-dall'album "FIGHT FOR YOUR MIND"
                                           tabulato da STEFANO BERTOCCO 
                                                       sfighengjs@iol.it
                                                       15 dicembre 1999
                                                       Treviso, ITALIA 

    VERSO(MAIN RIFF)-with Octave-                                                    
G-----------------------------------------------------------|-----------
D------------3-------------3-----3h5-----------3------------|-----------
A---5--5--------------3h5-----5-------5--5-----------5\3/5--|-----------
E-----------------------------------------------------------|-----------
                                                                        

    CHORUS                                              -without Octave-            
G-----------------------------------------------------------------------
D------------3-------------3-----3h5-----------3-------------------3--5-
A---5--5--------------3h5-----5-------5--5-------------------3--5-------
E-----------------------------------------------------------------------
                                                                        

                                                                        
G-----------------------------------------------------------------------
D---3-----3-----------3--------------------------3--7--5--3-------------
A------5--------3--5-----------------------3--5--------------5-----3----
E------------------------3--3-----3-------------------------------------
                                                                        

                                                                        
G-----------------------------------------------------------------------
D------3--------------------------3--5--3-----3-----------3--------5----
A---5-----------------------3--5-----------5--------3--5----------------
E---------3--3-----3----------------------------------------------------
                                                                        
[ Tab from: http://www.guitartabs.cc/tabs/b/ben_harper/fight_for_your_mind_btab.html ]
                                                                        
G-----------------------|-----------------------------------------------
D---------3-------------|-----------------------------------------------
A------------------(5)--|-----------------------------------------------
E-----------------------|-----------------------------------------------
                                                                        

    PONTE                                                               
G---7--7--5--7--------5--5--4--5----------------------------------------
D---------------------------------------9--9--7--9--------7--7--5--7----
A-----------------------------------------------------------------------
E-----------------------------------------------------------------------
                                                                        

                                  SOLO(*)                                  
G------------------------------|--------------------|-------------------
D------------------------------|--------------------|-------------------
A---------8-----8--8--8--8--8--|--------------------|-------------------
E------------------------------|--------------------|-------------------
                                                                        

    FINALE                                                              
G-----------------------------------------------------------------------
D------------3-----------------------------3----------------------------
A---5--5-----------5--3--5--------5--5-----------5--3-------------------
E-----------------------------------------------------------------------
                                                                        

    (*)SOLO(This is my arrangement)
G-----------------------------------------------------------------------
D-----------------5--3-3----------------3-5-7-----------------5--3-3----
A------3--5---------------5-5-5-3-5---5------------3--5-----------------
E---5--------3----------------------------------5--------3--------------



G-----------------------------------------------------------------------
D--------------5---3----------------------------------------------------
A---5--3--5------------5------------------------------------------------
E-----------------------------------------------------------------------
Comments