Ben Harper - Faded Chords & Tabs

 

Faded Chords & Tabs

Ben Harper Chords & Tabs

Version: 1 Type: Bass Tab 0 ratings
1 star 2 stars 3 stars 4 stars 5 stars
comments

Faded Bass Tab

                                  FADED
                BEN HARPER-dall'album "THE WILL TO LIVE"         tabulato da STEFANO BERTOCCO
                                                                             sfighengjs@iol.it 
                                                                             04 agosto 2000
                                                                             Treviso, ITALIA


         Intro                                                          
G||------------------|------------------7--|--------------6--|-------
D||*-----------------|---------------------|-----------------|-------
A||*--------------7--|-----5--5--4/(5)-----|-----4--4--4-----|-------
E||---0--0--0--0-----|--0------------------|--0--------------|-------
                                                                        

G---------------||
D--------------*||
A---5--4--5/7--*||
E---------------||
                                                                        
     Verse                                          
G||---------------|---------------|------------------
D||*--------------|---------------|------------------
A||*-----------7--|--5--(4)--5h7--|------------------
E||---0-----0-----|---------------|------------------
                                                                        

G-------------------|--------------------------------------|------------
D-------------------|--------------------------------5-----|------------
A---5--(4)--5--5h7--|-----------4--4-----5--5-----7-----7--|------------
E-------------------|--5-----5-----------------------------|------------
                                                                        
[ Tab from: http://www.guitartabs.cc/tabs/b/ben_harper/faded_btab.html ]
G------------------------------4--7--4---||
D------------4--4-----7--7--------------*||
A---5-----5-----------------------------*||
E----------------------------------------||
                                                                        
      
      Chorus                
G||----------------|--------
D||*---------------|--------
A||*--------5/(7)--|--------
E||---0--0---------|--------
                                                                        


G----------------|---------------|---------------|----------------------
D----------------|---------------|---------------|----------------------
A------5--5/(7)--|--------5/(7)--|-----5--5/(7)--|----------------------
E---0------------|--0--0---------|--0------------|----------------------
                                                                        

                                                                        
G-------------------------------------------------------------||--------
D------------------------------------------------------------*||--------
A---3--3--3--3-----3--3--3--3-----5--5--5--5-----7--7--7--7--*||--------
E-------------------------------------------------------------||--------
                                                                        

    Ponte                           4x         2x              
G||-------------------------|---------||---------||---------||-------
D||*------------------------|--------*||--------*||--------*||-------
A||*--2h(5)-----------------|--------*||--------*||--------*||-------
E||----------0--3--5--3--0--|--0--0---||--5--5---||--0--0---||-------
                                                                        

         2x                               3x                          
G----------||---------||---------||---------||--------|-----------------
D---------*||--------*||--------*||--------*||--------|-----------------
A---------*||--------*||--------*||--------*||--------|-----------------
E---3--3---||--5--5---||--3--3---||--5--5---||--0--0--|-----------------
                                                                        

                                                                        
G-------------||---------||--------|-----------------||-----------------
D------------*||--------*||--------|-----------------||-----------------
A------------*||--------*||--------|-----------------||-----------------
E---3--3--5---||--0--0---||--0--0--|--0--0--3--3--5--||-----------------
                                                                        


Comments