Ben Harper - Diamonds On The Inside Chords & Tabs

 

Diamonds On The Inside Chords & Tabs

Ben Harper Chords & Tabs

Version: 5 Type: Tab 0 ratings
1 star 2 stars 3 stars 4 stars 5 stars
comments

Diamonds On The Inside Tab

   
Tune it down a Half Step, or you can managed with a Capo on the First Fret.
[ Tab from: http://www.guitartabs.cc/tabs/b/ben_harper/diamonds_on_the_inside_tab_ver_5.html ]
VERSE:
                G      Am    Bm    Am     G
e|---------------3------------2-----------3|
b|---------------3------1-----3-----1h3---3|
G|---0-----------0------2-----2h4---2-----0| REPEAT
D|-----2p0-------0------2-----4-----2-----0|
A|-------2p0-----2------------2-----------2|
E|---------3p0---3/5----------------------3|

*note: When Ben Harper plays the Bm, he slides the bar up to the Second fret.

CHORUS:

e|----------------------------------------3|
b|---------------1--1------1--------------3|
G|---0-----------2--0h2----0----0h2p0-----0|  REPEAT
D|-----2p0-------3--3------2--2-------2---0|
A|-------2p0-----x--x------3--------------2|
E|---------3p0---1--1---------------------3|


There it is, have a good one. SD
Comments