Ben Harper - Diamonds On The Inside Chords & Tabs

 

Diamonds On The Inside Chords & Tabs

Ben Harper Chords & Tabs

Version: 1 Type: Tab 0 ratings
1 star 2 stars 3 stars 4 stars 5 stars
comments

Diamonds On The Inside Tab

   
         ****************************************
         * Ben Harper - Diamonds On The Inside  *
         ****************************************

Artist : Ben Harper
Song   : Diamonds On The Inside
Tabbed : Tom Francis
Email  : tom_francis@telstra.com


Standard Tuning
Capo 1st Fret
All chords and tablature are relative to capo


Key
h : Hammer On
p : Pluck

 

Intro and the cool riff

E-------------------|
B-------------------|
G--0----------------|
D----2-0------------|
A--------2-0--------|
E------------3-0-3--|


VERSE'S: (these are by no means indicitive of timing)
[ Tab from: http://www.guitartabs.cc/tabs/b/ben_harper/diamonds_on_the_inside_tab.html ]
   G              Am       Bm     Am  C    G
E--3-------------------------------------3-----|
B--0--0-0-0--0----1-1-1----3-3-3--1-1-1--0-0---|
G--0--0-0-0--0----2-2-2----4-4-4--2-2-0--0-0---|
D--0--0-0-0--0----2-2-2----4-4-4--2-2-2--0-0---|
A--2------------0------0-1------0--------2-2---|
E--3---------3h4-------------------------------|


CHORUS: (these are by no means indicitive of timing)
                      F     C       G
E-------------------|-1------------------------|
B-------------------|-1-1-1-1-1-----1-0-0------|
G--0----------------|-2-2-2-0-0-0h2p0-0-0------|
D----2-0------------|-3-3-3-2-2-----2-0-0------|
A--------2-0--------|-3-3---3-3-----3-2-2------|
E------------3-0----|-2-----------------3------|


That's basically the whole song, except for the solo
which u can just improv over the verse chords. There 
is alot more to this song, like two guitars, and Ben 
doesn't just keep it like this,  he alters it almost 
everytime.  But this base is fine to work with and 
cool just for an acoustic jam!  So have fun!

____________________________________________________
TABBED using notepad
Comments