Ben Harper - Beloved One Chords & Tabs

 

Beloved One Chords & Tabs

Ben Harper Chords & Tabs

Version: 1 Type: Tab 0 ratings
1 star 2 stars 3 stars 4 stars 5 stars
comments

Beloved One Tab

Artist: Ben Haper 
Song: Beloved One
By Tom Stevenson
Key: Down Stroke = ۷
   : Up Stroke = ^
[ Tab from: http://www.guitartabs.cc/tabs/b/ben_harper/beloved_one_tab.html ]
     ۷^۷^   ۷^۷^   ۷^   ۷^    ۷ ۷^
e|---3333---3333---33---33----3-33-|
d|---3333---3333---33---33----3-33-|
b|---0000---2222---00---00----0-00-|
g|---0000---0000---00---00----0-00-| x2
d|---2222-0-0000---00---00----0-00-|
a|-3-3333--------------------------|
e|---------------3----2-----0------|


     ۷^۷^   ۷^۷^   ۷^   ۷^    ۷ ۷^
e|---3333---3333---33---33----3-33-----|
d|---3333---3333---33---33----3-33-----|
b|---0000---2222---00---00----0-00-----|
g|---0000---0000---00---00----0-00-----| x1
d|---2222-0-0000---00---00----0-00-----|
a|-3-3333------------------------------|
e|---------------3----2-----0------0-3-|

Play this over and over and you are on your way
Comments