Ben Harper - Alone Chords & Tabs

 

Alone Chords & Tabs

Ben Harper Chords & Tabs

Version: 4 Type: Tab 0 ratings
1 star 2 stars 3 stars 4 stars 5 stars
comments

Alone Tab

Crazy distortion  rate it please
[ Tab from: http://www.guitartabs.cc/tabs/b/ben_harper/alone_tab_ver_4.html ]
Alone solo
e--------------------------------------------------------
B--------------------------------------------------------
G-4--5-4-4--2-0-2--0------0-2-4--5-4-4--5--7-4--5-7-2----
D--------------------4-4---------------------------------
A--------------------------------------------------------
E--------------------------------------------------------


e--------------------------------------------------------
B--------------------------------------------------------
G-4--5--4--2--0----2--0------------0--2--4---------------
D----------------4------4--5--2--4-----------------------
A--------------------------------------------------------
E--------------------------------------------------------
Comments