Ben Harper - Alone Chords & Tabs

 

Alone Chords & Tabs

Ben Harper Chords & Tabs

Version: 3 Type: Tab 0 ratings
1 star 2 stars 3 stars 4 stars 5 stars
comments

Alone Tab

-------------------------------------------------------------------------------
			     Alone (live at mars)- Ben Harper
-------------------------------------------------------------------------------
Tabbed by:cutbackman
Email:smidg_osu@hotmail.com     any queries just shout

Tuning:standard
     Intro

e|---------------------------------------------------------------------------|
B|---------------------------------------------------------------------------|
G|---------------------------------------------------------------------------|
D|---------------------------------------------------------------------------|
A|-----10-------11-------6-------7--------4----------5------------3-------2--|let ring
E|--8-------7--------4-------5---------2--------3----------1----------0------|

      Verse:

e|---------------------------------------------------------------------------|
B|---------------------------------------------------------------------------|
G|---------------------------------------------------------------------------|
D|---------------------------------------------------------------------------|
A|-----12-12-12----10-10-10----9-9-9----10-10-10-----------------------------|
E|---0-----------0-----------0--------0--------------------------------------|
[ Tab from: http://www.guitartabs.cc/tabs/b/ben_harper/alone_tab_ver_3.html ]
e|---------------------------------------------------------------------------|
B|---------------------------------------------------------------------------|
G|---------------------------------------------------------------------------|
D|---------------------------------------------------------------------------|
A|-----10-10-10-10---10-10----9-9-9-9---9-9----------------------------------|
E|---8-------------8--------7---------7--------------------------------------|


  Pre chorus:

e|---------------------------------------------------------------------------|
B|---------------------------------------------------------------------------|
G|---------------------------------------------------------------------------|
D|---------------------------------------------------------------------------|
A|-----10-10-10-10---10-10----9-9-9-9---9-9----------------------------------|
E|---8-------------8--------7---------7--------------------------------------|
                                                  X 2

  Chorus:

e|---------------------------------------------------------------------------|
B|---------------------------------------------------------------------------|
G|---------------------------------------------------------------------------|
D|------------------------------9-9-9----------------------------------------|
A|---7-7-7---10-10-10---7-7-7------------------------------------------------|
E|-0-------0----------0-------0----------------------------------------------|
                                                  X 3

e|---------------------------------------------------------------------------|
B|---------------------------------------------------------------------------|
G|---------------------------------------------------------------------------|
D|---------------------------------------------------------------------------|
A|---7-7-7---10-10-10---7-7-7-7---7-7---7-7-7-7---7-7------------------------|
E|-0-------0----------5---------5-----5---------5----------------------------|
Comments