Ben Harper - Alone Chords & Tabs

 

Alone Chords & Tabs

Ben Harper Chords & Tabs

Version: 2 Type: Tab 0 ratings
1 star 2 stars 3 stars 4 stars 5 stars
comments

Alone Tab

   
-------------------------------------------------------------------------------
			     ALONE - Ben Harper
-------------------------------------------------------------------------------

Tabbed by: Jumping iguana
Email: jumoing_iguana@hotmail.com

Tuning: standard e a d g b e

     This song consist of 3 main riffs

  Verse:

e|---------------------------------------------------------------------------|
B|---------------------------------------------------------------------------|
G|---------------------------------------------------------------------------|
D|---------------------------------------------------------------------------|
A|-----12-12-12----10-10-10----9-9-9----10-10-10-----------------------------|
E|---0-----------0-----------0--------0--------------------------------------|

e|---------------------------------------------------------------------------|
B|---------------------------------------------------------------------------|
G|---------------------------------------------------------------------------|
D|---------------------------------------------------------------------------|
A|-----10-10-10-10---10-10----9-9-9-9---9-9----------------------------------|
E|---8-------------8--------7---------7--------------------------------------|

     This is repeated twice before the vacals and bass enter and 6 times more after that


  Pre chorus:

e|---------------------------------------------------------------------------|
B|---------------------------------------------------------------------------|
G|---------------------------------------------------------------------------|
D|---------------------------------------------------------------------------|
A|-----10-10-10-10---10-10----9-9-9-9---9-9----------------------------------|
E|---8-------------8--------7---------7--------------------------------------|
                                                  X 2

  Chorus:
[ Tab from: http://www.guitartabs.cc/tabs/b/ben_harper/alone_tab_ver_2.html ]
e|---------------------------------------------------------------------------|
B|---------------------------------------------------------------------------|
G|---------------------------------------------------------------------------|
D|------------------------------9-9-9----------------------------------------|
A|---7-7-7---10-10-10---7-7-7------------------------------------------------|
E|-0-------0----------0-------0----------------------------------------------|
                                                  X 3

e|---------------------------------------------------------------------------|
B|---------------------------------------------------------------------------|
G|---------------------------------------------------------------------------|
D|---------------------------------------------------------------------------|
A|---7-7-7---10-10-10---7-7-7-7---7-7---7-7-7-7---7-7------------------------|
E|-0-------0----------5---------5-----5---------5----------------------------|


The song order is:
-Intro (verse riff twice with no bass or vocals)
-verse
-pre chorus
-chorus
-verse
-pre chorus
-chorus
-verse  }played under solo
-chorus }played under solo (only play first part line twice (instead of 3 times)
-verse (guitar doesnt play during first two lines)
-pre chorus
-chorus

and finishes with this (instead of the last line of the chorus)
e|---------------------------------------------------------------------------|
B|---------------------------------------------------------------------------|
G|---------------------------------------------------------------------------|
D|---------------------------------------------------------------------------|
A|---7-7-7---10-10-10--7-----------------------------------------------------|
E|-0-------0-----------5-----------------------------------------------------|


email coments and corections to jumping_iguana@hotmail.com

===============================================================================
Comments