Ben Harper - Alone Chords & Tabs

 

Alone Chords & Tabs

Ben Harper Chords & Tabs

Version: 1 Type: Tab 0 ratings
1 star 2 stars 3 stars 4 stars 5 stars
comments

Alone Tab

Person: Chris Leso Gumbya55@hotmail.com

song: Alone

artist: Ben Harper

tab: 
   Song:Alone

   Artist:Ben Harper
   
   Album:Burn to SHine

 Normal Tuning
   There is one main riff throughout the song, this is it:
 Timing is the important part, which is not indicated
 Listen to the song and you will get it



E--------------------------------------------------------------
B--------------------------------------------------------------
G--------------------------------------------------------------
D-----7-----5------4------5-----------5--------------5---------
A-----7-----7------7------7-------3---3-strum----2---2-strum---
E--0-----0------0------0---------------------------------------



   and the part:  “ I Don’t Want To Feel”
E----------------------------------------
B----------------------------------------
G----------------------------------------
D-------5-----------5--------------------
A---3---3-------2---2-----Back-and-Forth-
E----------------------------------------

   Chorus- 

   Repeat first part of riff



   Solo:
[ Tab from: http://www.guitartabs.cc/tabs/b/ben_harper/alone_tab.html ]
E----------------------------------------------------------------
B----------------------------------------------------------------
G----------------------------------------------------------------
D----------------------------------------------------------------
A---14---15-14----12\10/12----10-9~~~-----10---12----14---15-14--
E----------------------------------------------------------------


E----------------------------------------------------------------
B----------------------------------------------------------------
G----------------------------------------------------------------
D----------------------------------------------------------------
A---15--17--14---15---17---12----14--15--14----12-----10-----9---
E----------------------------------------------------------------


E----------------------------------------------------------------
B----------------------------------------------------------------
G----------------------------------------------------------------
D----------------------------------------------------------------
A--12---10---9----12----10--9---10--------7--9---10--12----14----
E----------------------------------------------------------------

SUBMIT: Send
Comments