Ben Harper - Alone Acoustic Chords & Tabs

 

Alone Acoustic Chords & Tabs

Ben Harper Chords & Tabs

Version: 1 Type: Tab 0 ratings
1 star 2 stars 3 stars 4 stars 5 stars
comments

Alone Acoustic Tab

Ben Harper - Alone(Acoustic)
Tabbed By: Daniel
EMail: vida_bdn@hotmail.com


Song: Ben Harper-Alone
Tabbed By: Daniel
Email: vida_bdn@hotmail.com
Hate mail welcome.Ok, I've seen alot of other tabs out there that just aren't right, 
the other tab on this site sounds good, but isn't how the song goes, 
at least not the acoustic version. Ben Harper has a way of making a simple 
riffs and some good lyrics into amazing songs.
Enjoy!


All it is is this over and over untill the chorus.
e|-----------------------------------------------------|
B|-----------------------------------------------------|
G|-----------------------------------------------------|
D|-----------------------------------------------------|
A|----12-12-12-----10-10-10------9-9-9--------10-10-10-|
E|--0-----------0--------------0-----------0-----------|


e|-----------------------------------------------------|
B|-----------------------------------------------------|
G|-----------------------------------------------------|
D|-----------------------------------------------------|
A|---10-10-10-10------10-10-------9-9-9-9------9-9-----|
E|8---------------8----------7--------------7----------|

CHORUS
[ Tab from: http://www.guitartabs.cc/tabs/b/ben_harper/alone_acoustic_tab.html ]
"I don't wanna live..."
e|-----------------------------------------------------|
B|-----------------------------------------------------|
G|-----------------------------------------------------|x2
D|-----------------------------------------------------|
A|--10-10-10-10------10-10-------9-9-9-9----9-9--------|
E|8---------------8----------7----------7--------------|

"Alone..."
e|-----------------------------------------------------|
B|-----------------------------------------------------|
G|-----------------------------------------------------|
D|-----------------------------------------------------|x4
A|---7-7-7-------10-10-10-------7-7-7------5-5-5-------|
E|0------------8-------------5----------3--------------|e|-----------------------------------------------------|
B|-----------------------------------------------------|
G|-----------------------------------------------------|
D|-----------------------------------------------------|
A|---10-10-10-10------10-10-------9-9-9-9------9-9-----|
E|8---------------8----------7--------------7----------|

 

LYRICS 

This empty room it fills my mind
Freedom it leaves me confined
Every single wall has cracked
But in this life you can't turn back

I don't want to live,
I don't want to live alone
Alone
Alone
Alone

As these words are with my tongue
I question why they're even sung
I have promised but I lied
I don't even know myself inside

I don't want to be,
I don't wanna be here alone
Alone
Alone
Alone

Today and tomorrow have become one
Every single thing has become none
Human nature is a beast
What I've done the most to show I have the least

Please don't leave me here,
please don't leave me here
Don't you leave me alone
Alone
Alone
Alone
Comments