Ben Gibbard - You Remind Me Of Home Chords & Tabs

 

You Remind Me Of Home Chords & Tabs

Ben Gibbard Chords & Tabs

Version: 2 Type: Tab 0 ratings
1 star 2 stars 3 stars 4 stars 5 stars
comments

You Remind Me Of Home Tab

This is simply a correction to the other tab on the site.  The chords and lyrics are
100%, but the riff tab is way off.  The real song goes like this.

First Part
[ Tab from: http://www.guitartabs.cc/tabs/b/ben_gibbard/you_remind_me_of_home_tab_ver_2.html ]
E|-------------------------|
B|---------------------1-0-|
G|---------2-0-------------|
D|-------0-----------2-----|
A|-----------------3-------|
E|-----3-------------------|

First Part

E|-------------------------|
B|-----------------------0-|
G|---------2-0---------3---|
D|-------0-----------2-----|
A|-----------------3-------|
E|-----3-------------------|
Comments