Ben Gibbard - Complicated Live Chords & Tabs

 

Complicated Live Chords & Tabs

Ben Gibbard Chords & Tabs

Version: 1 Type: Tab 0 ratings
1 star 2 stars 3 stars 4 stars 5 stars
comments

Complicated Live Tab

   
Author/Artist: Ben Gibbard
Title: Complicated (Live Avril Lavigne Cover)
Transcribed by: Edoardo
Standard Tuning

really good cover of Complicated performed by Ben Gibbard of 
Death Cab for Cutie.
in the live recording he is repeatedly heard saying: 
"shut up, this is serious..."

#intro & verses# (Chill out, whatcha yelling for...)
[ Tab from: http://www.guitartabs.cc/tabs/b/ben_gibbard/complicated_live_tab.html ]
   B                Gm              D#5               F5
-|--------------------------------------------------------------------|-
-|-6---6--6-6-6-6---3---3--3-3-3-3---6---6--6-6-6-6---8---8--8-8-8-8--|-
-|-7---7--7-7-7-7---3---3--3-3-3-3---8---8--8-8-8-8---10--10-10101010-|-
-|-8---8--8-8-8-8---5---5--5-5-5-5---8---8--8-8-8-8---10--10-10101010-|-
-|-8---8--8-8-8-8---5---5--5-5-5-5---6---6--6-6-6-6---8---8--8-8-8-8--|-
-|-6---6--6-6-6-6---3---3--3-3-3-3------------------------------------|-
                                                                              
#chorus# (Somebody else, round everyone else...)

   Gm               B               D#5               F5
-|---------------------------------------------------------------------|-
-|-3---3--3-3-3-3---6---6--6-6-6-6---6---6--6-6-6-6---8---8--8-8-8-8---|-
-|-3---3--3-3-3-3---7---7--7-7-7-7---8---8--8-8-8-8---10--10-10101010--|-
-|-5---5--5-5-5-5---8---8--8-8-8-8---8---8--8-8-8-8---10--10-10101010--|-
-|-5---5--5-5-5-5---8---8--8-8-8-8---6---6--6-6-6-6---8---8--8-8-8-8---|-
-|-3---3--3-3-3-3---6---6--6-6-6-6-------------------------------------|-
                                                                              
#chorus end# (honesty and promise me...)

  Cm7 		   D#5
-|-3---3--3-3-3-3-------------|-
-|-4---4--4-4-4-4---6---------|-
-|-3---3--3-3-3-3---8---------|-
-|-5---5--5-5-5-5---8---------|-
-|-3---3--3-3-3-3---6---------|-
-|----------------------------|-
Comments