Ben Folds Five - The Ultimate Sacrafice Chords & Tabs

 

The Ultimate Sacrafice Chords & Tabs

Ben Folds Five Chords & Tabs

Version: 1 Type: Bass Tab 0 ratings
1 star 2 stars 3 stars 4 stars 5 stars
comments

The Ultimate Sacrafice Bass Tab

"The Ultimate Sacrafice" by Ben Folds Five
Tabbed by Tim Swan
From Naked Baby Photos

Part 1 - This is the part with the long notes
G----------------------
D----------------------
A-5---5-3---3-1---1-0--
E----------------------

Part 2 - This is the part with the Piano
G-----------------------
D-----------------------
A-5-5--3-5--3-5-5--3-5--
E-----------------------
[ Tab from: http://www.guitartabs.cc/tabs/b/ben_folds_five/the_ultimate_sacrafice_btab.html ]
Bridge Part - Just before "Oh God..."
G----------------------------------------------------------------
D-15-14-12----14-12--15-17-18--15-17-18--------------------------
A----------15-----------------------------17---15--15-17-13--12--
E----------------------------------------------------------------

Ending Part - This Part is very distorted and hard to make out, so 
anything in A should sound good
G------------------------------
D-----7-5-7-5-7-5-7-5-7-5-7-5--
A------------------------------
E-5-5--------------------------

After that he just messes around a little  

The Final Part - "The Ultimate Sacrafice!"
G---------2--6---7-----------------------
D------3------------7--------------------
A-5-------------------8--5--4---------7--
E------------------------------5---7-----

rock1813@hotmail.com
Comments