Ben Folds Five - The Last Polka Chords & Tabs

 

The Last Polka Chords & Tabs

Ben Folds Five Chords & Tabs

Version: 1 Type: Bass Tab 0 ratings
1 star 2 stars 3 stars 4 stars 5 stars
comments

The Last Polka Bass Tab

"The Last Polka" by Ben Folds Five
Tabbed by Tim Swan

Intro
G-------------------------
D-------------------------
A-5-----5----5----------5-
E----3----------3--1-0----

First Verse
G---------------------------------------------------------
D-----------------------------------------------3-4-5-----
A-5-----------5-----5-----5-----------5-----5-7-------5---
E----5--3--5-----5-----5-----5--3--5-----5--------------3-

G------------
D-7----------
A---7---7-5--
E-----5------


Lead in to Second Verse -  Fast
G----------------------------------------------------
D----------------------------------------------------
A-5--------3-5----3-5----3-5--------3-5----3-5----3--
E---5-3--5------5------5-----5-3--5------5------5----


Second Verse - "He's a heap..."
G----------------------------------------------------
D----------------------------------------------------
A-5--------3-5----3-5----3-5--------3-5----3-5-------
E---5-3--5------5------5-----5-3--5------5-----0-1-2-

G---------------------------------------------
D------------------77-------------------------
A---------------77----77--5-55-4-44-3-33-2-22-
E-3-33-33-33-35-------------------------------


Chorus - "Sha la la..."
G------------------------------------------------------------
D------------------------------------------------------------
A-1---1---3---------0-1---1---3---------0-1---1---3--3--5-3--
E---1---1---3-1-1-3-----1---1---3-1-1-3-----1---1------------

G----------------------------------------------------------
D---------2-3-4-5------------------------------------------
A-3-2-3-5------------1---1-----1---1-----5---5-----5---5-3-
E----------------------1---1-3---1---1-3---5---5-7---5-----
[ Tab from: http://www.guitartabs.cc/tabs/b/ben_folds_five/the_last_polka_btab.html ]
G----------------------------------------
D------------------------------------77--
A-1---1-----1---1-0---------------77-----
E---1---1-3---1-----3-33-33-33-55--------


Third Verse - The Same as the others.  There are a few minor changes but I am not going to work them out because I am just to lazy.


Bridge - "My, My..." - Maybe a little off
G---------------------------------------------9----11----14-16-14-
D------------------------12-11-10-9-8--8-9-10---12----14----------
A-----------------------------------------------------------------
E-6---7-8-9---10--9--10-------------------------------------------

G-----------------------------
D-12--11-12--11-12--11-12----
A-------------------------12-
E----------------------------


Just before the last verse there is one new fill. 
G-------------------------------------
D-----------4-6-7-10-9-7--------------
A-----4-5-7--------------10-8-7-------
E-5-7---------------------------10-7--


Verse
Chorus 

This ends the verse and leads into the end.
G-------------------------------4-3-4-7-6-7-
D-------------------------5-4-5-------------
A-------------5-4-5-8-7-8-------------------
E-3-2-3-7-6-7-------------------------------

G-10-9-10-12-11-12-16-15-16-19---
D--------------------------------
A--------------------------------
E--------------------------------

Slow Ending
G------------------------------------------------------------------
D------------------------------------------------------------------
A-1-----1-----1-----5-----5----3-5-----5--3-1-----1-----1-----1----
E----1-----1-----1-----5-----5------5----------1-----1-----1-----1-

G-------------------------------------
D-------------------------------------
A-5-----5----3-5-----5--3--1--1--1-1--
E----5-----5------5-------------------


rock1813@hotmail.com
Comments