Ben Folds Five - Stephens Last Night In Town Chords & Tabs

 

Stephens Last Night In Town Chords & Tabs

Ben Folds Five Chords & Tabs

Version: 1 Type: Bass Tab 0 ratings
1 star 2 stars 3 stars 4 stars 5 stars
comments

Stephens Last Night In Town Bass Tab

"Steven's Last Night In Town" by Ben Folds Five
Tabbed By Tim Swan

You'll have to listen as to how fast everything is played.
There is really no sense of time in this tab by it self.

Intro - Play this over and over til the verse
G----------------------------------
D-4-4-4-4-3-3-3-3-2-2-2-2----------
A----------------------------------
E-------------------------5-5-5-5--

Verse - "Every one gather round now..."
Play twice - There are a few little improves
G-----------------------------------------------------------------
D-4-4-4-4-3-3-3-3-2-2-2-2-----------------4-4-4-4---------2-1-2-3-
A---------------------------------5-5-5-5---------2-2-2-2---------
E-------------------------5-5-5-5---------------------------------

Then play the intro line once

Chorus - "Well we thought he was gone..."
G---------------------------------
D---------------------------------
A-----------------2-------4-------
E-5--5----5--5-------2-------2----

G-------------------------2-2-2-2--------
D----------------------------------------
A-5-5-5-5-4-4-4-4-2-2-2-2----------------
E---------------------------------4---0--

The intro line again


Verse 2 - "he's charmed everyone here..."
G--------------------------------
D-4---3---2-----2-----------4-2--
A---4---3---2-----5-----4-2------
E-------------5-----5-2----------

G----------------------------------------------
D-4---3---2-----2-1------------------4-2-1-2-3-
A---4---3---2-------5-5------4-3-2-2----------
E-------------5--------5-2-2------------------

G-------------------------2-2-
D-4-4-4-4-3-3-3-3-2-2-2-2-----
A-----------------------------
E-----------------------------

Then play the chorus once
[ Tab from: http://www.guitartabs.cc/tabs/b/ben_folds_five/stephens_last_night_in_town_btab.html ]
Bridge
G-------------4--2-------------------4-4-2-2---------------------
D-3-----3--6--------6--4--3----3--6----------6-6-4-4---------2---
A----4-----------------------4-----------------------2-----2-----
E-------------------------------------------------------2--------

G-------------4-----4--7--9-7-6-------------------------
D-4-----4--7-----4--------------9-7-6-------------------
A----4--------------------------------9-7---------------
E-------------------------------------------------------

G-----------------------------------------------------------
D-----------------------------------------------------------
A-8---8-10-11---11-11-9---9-11-9-7------8---8-9-11---11-10--
E---9---------9---------9----------10-9---9--------9--------

G-------------------------------10-12-13-11----9---------------
D----------------7-8-9---9-11-9-------------11---11-9----------
A-9---12-11-9-11-------9------------------------------12-11-9--
E---9----------------------------------------------------------

G---------7-9---9-7-6------------------
D-12-11-9-------------9-7-6------------
A-------------7-------------9-7--------
E-------------------------------9-7-5--



Verse Three - Come in on "maybe he wasn't mad..."
G-----------------------------------------------------------------
D-4-4-4-4-3-3-3-3-2-2-2-2-----------------4-4-4-4---------2-2-3-3-
A-----------------------------4-4-5-5-5-5---------2-2-2-2---------
E-------------------------5-5-------------------------------------


G-------------------------2-2------
D-4-4-4-4-3-3-3-3-2-2-2-2----------
A----------------------------------
E-----------------------------5-5--

Chorus

The end
G--------------------
D------------------4-
A----------2-5-4-3---
E-1----1-4-----------


rock1813@hotmail.com
Comments