Ben Folds Five - Sports And Wine Chords & Tabs

 

Sports And Wine Chords & Tabs

Ben Folds Five Chords & Tabs

Version: 1 Type: Bass Tab 0 ratings
1 star 2 stars 3 stars 4 stars 5 stars
comments

Sports And Wine Bass Tab

   
"Sports and Wine" by Ben Folds Five
Tabbed by Tim Swan

Intro
G--------------------------------------------------------------------
D--------------------------------------------------------------------
A--------------------------------------------------------2-2-3-3-4-4-
E-5-5-5-5-5-5-0-3--5-5-5-5-5-5-0-3--5-5-5-5-5-5-0-3--5-5-------------

Verse #1
G-------------------------------------------------------------------
D------------------------------6-5-4-4-4-1-2-4-4-4------------------
A-5-5-5-2-3-5-5-5--4-4-4-4-4-4---------------------7-7-7-4-5-7-7-7--
E-------------------------------------------------------------------

G----------------------------------------6-7--------
D----------------------------------7-7-7-----7-7-7--
A-5-5-5-2-3-5-5-5--4-4-4-1-2-4-4-4------------------
E---------------------------------------------------

play twice
G-----------------------------------
D-----------------------------------
A-----------------------------------
E-5-5-5-5-5-5-2-3--5-5-5-5-5-5-2-3--

Verse #2 - The same as verse #1 except at the end.  Instead of playing 
the intro part play this twice.
G-----------------------------6-9-
D---------7-7-7---------7-7-9-----
A---4-5-7---------4-5-7-----------
E-5-------------5-----------------

[ Tab from: http://www.guitartabs.cc/tabs/b/ben_folds_five/sports_and_wine_btab.html ]
"The Girls don't understand it..."
Slow
G-------------------------------------------------------------
D-------------------------------------------------------------
A-5-/17-----------14--------------------------------------5-7-
E-------14-15-17-----14-14-14-14-14-14-12-12-12-12-12-12\-----

Then play the end part of verse #2 once.

Solo #1 - Same as verse #1.


Verse #3 - Verse #1 Again.

"The girls don't understand it.." 
Fast.  There may be too many or too few notes so just follow the 
rhythm.
G-----------------------------------------------------------------
D-----------------------------6-7-7-7-7-7-7-7-7--4-4-4-4-4-4-4-4--
A-5-5-5-5-5-5-5-5-5-5-5-5-5-7-------------------------------------
E-----------------------------------------------------------------

G-4-4-4-4-4-4-4-4-4-4-4-4-4-4-4-4-
D---------------------------------
A---------------------------------
E---------------------------------

"True"
D-2---3---4---5---6--7--8--9--10-11-12-13-14

Solo #2 - Verse

Intro until Drum solo

After drum solo
G--------------------------------------------------------------------
D--------------------------------------------------------------------
A-----------------------------------5-5-5-5-5-5-0-3------------------
E-5-5-5-5-5-5-0-3--5-5-5-5-5-5-0-3------------------5-5-5-5-5-5-0-3--


This could be a little off.  Try different things.
G----------------------
D-----------4-5-6-7----
A---4-5-6-7------------
E-5------------------5-

Fun song
There are few minor mistakes in this but for the most part is correct.

rock1813@hotmail.com
Comments