Ben Folds Five - Song For The Dumped Chords & Tabs

 

Song For The Dumped Chords & Tabs

Ben Folds Five Chords & Tabs

Version: 2 Type: Tab 0 ratings
1 star 2 stars 3 stars 4 stars 5 stars
comments

Song For The Dumped Tab

#----------------------------------PLEASE NOTE--------------------------------#
#This file is the author's own work and represents their interpretation of the#
#song. You may only use this file for private study, scholarship, or research.#
#-----------------------------------------------------------------------------#

From: Mark Hillen <9607025h@student.gla.ac.uk>
Date: Wed, 13 May 1998 10:34:49 +0000
Subject: b/ben_folds_five/song_for_the_dumped.tab

Song For The Dumped - Ben Folds Five (revised)

(Folds) From the album "Whatever And Ever Amen", track four.

Tabbed by Neil Hillen, 9607025h@udcf.gla.ac.uk

When I tabbbed it out I finished it, forgot to save it repeatedly and
then for a big finale, made the computer crash. I also noticed the
second time that there are parallels between the second verse bit and
Jimi Hendrix' (or should I say Noel Redding's) Little Miss Strange
intro, but no one else will, so I'll shut up.


   Intro; try a G root with your thumb
---------3----------------|------------------------------------------|
-3-------3--3----5--5--5--|------------------------------------------|
-3h5--------3h5--5--5--5--|------------------------------------------|
-5----5-----5----5--5--5--|------------------------------------------|
--------------------------|------------------------------------------|
--------------------------|------------------------------------------|


            Verse; again root notes are a virtue     etc..
--1----1--1--1--|----------------|----------------|-----------|
--2h3--3--3--3--|--4h5--5--5--5--|--3----3--3--3--|--5--------|
----------------|--5----5--5--5--|--3h4--4--4--4--|--5--------|
----------------|----------------|----------------|-----------|
----------------|----------------|----------------|-----------|
----------------|----------------|----------------|-----------|


 then                  or
----------------------|--------------|--------------------------|
----------------------|--3--6--5--3--|--------------------------|
----------------------|--4--7--5--4--|--------------------------|
----------0--3--2--0--|--5--5--5--5--|--------------------------|
----------2--5--3--2--|--------------|--------------------------|
----------3--3--3--3--|--------------|--------------------------|


 you could have chords.....
---1--0--3--||--------3--||---------------------|
---3--1--3--||--6--5--3--||---------------------|
---0--0--0--||--7--5--4--||---------------------|
---0--0--0--||--5--5--5--||---------------------|
---2--2--2--||--5--3--5--||---------------------|
---3--3--3--||-----3--3--||---------------------|


     Chorus
--1--------------------|----------------------|
--1--------------------|----------------------|
--2--------5-----5-----|-8--------7-----------|
--3--------5-----------|-8--------8-----8-----|
--3--1--2--3--3-----3--|-6--------8-----------|
--1--------------------|----4--5--6--6-----6--|

------------------------------|
------------------------------|
--------0----2--------2p0--0--|
--------1h2--2--------2----2--|
--3--3--3----3--3--3--3----3--|
------------------------------|

 etc.....
|-----------------------|--3-------------|
|-----------1--1--1--1--|--3-------------|
|-----------3--3--3--3--|--4-------------|
|-----------2--2--2--2--|--5-------------|
|-----------3--3--3--3--|--5-------------|
|-----------------------|--3-------------|

[ Tab from: http://www.guitartabs.cc/tabs/b/ben_folds_five/song_for_the_dumped_tab_ver_2.html ]
chord things (try G roots)
------------------|-----------------------------------------------|
------------------|-----------------------------------------------|
------------------|-----------------------------------------------|
2--3--3--3--3--5--|-----------------------------------------------|
3--5--5--5--5--7--|-----------------------------------------------|
------------------|-----------------------------------------------|


I love this, pentatonics, arpeggios...... not a E7#9 to be seen.


      Solo;  Dm pentatonic.... probably....                    trill
---------------------------------|-----------------5--------|--------|
------------6--8--8--6--8--8--6--|-----6--8--8--6-----8--6--|--3--6--|
---------7-----------------------|--7-----------------------|--------|
---------------------------------|--------------------------|--------|
---------------------------------|--------------------------|--------|
---------------------------------|--------------------------|--------|


         Bridge
|--------------------1-----------1--0--------|-----------------------|
|-----------------1-----1--------------1-----|-----------------------|
|-----------1--2-----------2--------------0--|--------------8--------|
|--------3--------------------3--------------|--------5--8-----8--5--|
|--------------------------------------------|--6--9-----------------|
|--------------------------------------------|-----------------------|

---------------------|-----------------------------------------------|
---------------------|-----4--5--------------------------------------|
---8--7--------------|--5--------5--3--------------------------------|
---------8--5--------|-----------------5--4--3-----------------------|
6--------------6--7--|--------------------------6--3--6--7-----------|
---------------------|--------------------------------------8--6--3--|

--------------|--------------------------------------------|---------|
--------------|--------------------------------------------|-----3---|
---------0----|--------------8-----------8--7--------------|---------|
---------1h2--|--------5--8-----8--5-----------8--5--------|--4------|
1--3--3--3----|--6--9-----------------6--------------6--7--|---------|
--------------|--------------------------------------------|---------|

---------------------------------|-----------------------------------|
---------3-----------------------|--2--------------------------------|
---------------------7-----------|--3--------------------------------|
4--4--5-----5--5--6-----6--6--7--|--2--------------------------------|
---------------------------------|-----------------------------------|
---------------------------------|-----------------------------------|


         Bass thing
---------3--1-----1--------------------------------------------------|
---------------3-----3--1--3--1-----1--------------------------------|
---------0-----------------------3-----3--0--3--0-----0--------------|
---------------------------------------------------3-----3--0--3-----|
------------------------------------------------------------------5--|
---------------------------------------------------------------------|

---------------------------------------------------------------------|
---------------------------------------------------------------------|
---------------------------------------------------------------------|
---------------------------------------------------------------------|
4--3--1--------------------------------------------------------------|
---------3--1--3-----------------------------------------------------|


-Neil Hillen

"I cried my heart out... It evaporated"

Mark Hillen 9607025h@student.gla.ac.uk

Web Page: www.hillen.home.ml.org
Comments