Ben Folds Five - Smoke Chords & Tabs

 

Smoke Chords & Tabs

Ben Folds Five Chords & Tabs

Version: 1 Type: Bass Tab 0 ratings
1 star 2 stars 3 stars 4 stars 5 stars
comments

Smoke Bass Tab

"Smoke" by Ben Folds Five
Tabbed by Tim Swan

This song has one main part during the verse (A-8-10-7-8) and then is improvised on.  It is played in segments of four. On the second and fourth is were you improvise.  I have tabbed most of them but did leave some in the middle.


Intro 
G------------------------------------------
D-------------------------------------------
A-8-10-7-8---8-10-7-8h10p8---8-10-7-8--8-10-
E-------------------------------------------

Verse 1 - Nothing until "Rip out the..."
G------10--12-9-10---------10--12-9/12-10\9/10----------------------
D---10-------------10---10----------------------9-------------------
A-8-------------------8---------------------------8--8-10-7-8--8-10-
E-------------------------------------------------------------------

"Smoke"
G------------------
D------------------
A------------------
E-1-3-0-1--1-3-0-1-

Verse 2 - "The things..."
G------------------------------------------------------------
D----------------------------------------------9-10---10-12--
A-8-10-7-8---8-10-7-8-10-8---8-10-7-8---8-10-7------8--------
E------------------------------------------------------------

G------------------------------------------
D-------------------5----------------------
A-8-10-7-8---8-10-7---8--------------------
E-----------------------7\---1-3-0-1--1-3--

First Pick up to the Bridge
G---------
D---------
A-8-7-----
E-----10--
[ Tab from: http://www.guitartabs.cc/tabs/b/ben_folds_five/smoke_btab.html ]
Second Pick up to the Bridge
G----------------
D----------------
A-8--8--8-8-8-7--
E----------------

Bridge - "We will..."
G-------------------------------------------
D------10---7---------------10---7----------
A---10----7---7----------10----7---7---8--8-
E-8--------------5-0-1--8------------5------

I didn't tab out the next verse "here's an evening dark..." these parts 
are just the same as a regular verse and I just don't want to tab out all the little parts. 


"You can smell them..."
G-10-9---------------------------------------------
D------10----------------------9-10---10h12p10h12--
A---------10--8-10-7-8--8-10-7------8--------------
E--------------------------------------------------


G-10-12-9-10--10-12-9-10-12-10\9/10---------------
D-----------------------------------10------------
A--------------------------------------8-10-7-8---
E-------------------------------------------------

G-----------12-9-------------------------------------
D----------------10-12-------------------------------
A-8-10-7-8-------------10-7-8--8-10-7-8--------------
E---------------------------------------8-3-1--1-3---


The Last Chorus
G----------------------2-4-5-7----------------------2-4-5-7-
D----------------2-3-5------------------------2-3-5---------
A----------2-3-5------------------------2-3-5---------------
E-1-3--3-5---------------------1-3--3-5---------------------

G-/14-12-10-----------------
D-----------/14-12-10-------
A---------------------8-----
E---------------------------

Just hold that F until the song is over
rock1813@hotmail.com
Comments