Ben Folds Five - Regrets Chords & Tabs

 

Regrets Chords & Tabs

Ben Folds Five Chords & Tabs

Version: 1 Type: Bass Tab 0 ratings
1 star 2 stars 3 stars 4 stars 5 stars
comments

Regrets Bass Tab

"Regrets" by Ben Folds Five
Tabbed By Tim Swan

Ouch!

Intro
G---------------------------------------------
D------------8---8-7-6-------------8---8-7-6--
A-6------5-8---8--------6------5-8---8--------
E----6-8-------------------6-8----------------

Verse - "While the other kids..." I think you just keep repeating this. There could be a mistake in there.
G------------------------------------------------
D-----------------8---8-7-6----------------------
A-6----------5--8---8-------6--------3-4-6-3-4-5-
E---9-8--6-8------------------4--4-6-------------

"Regrets..." Play this a few times
G-------------
D----------6--
A----5--8-----
E-7-----------
[ Tab from: http://www.guitartabs.cc/tabs/b/ben_folds_five/regrets_btab.html ]
This leads into the next verse.
G-----------------
D-----------------
A-----3-4-6-3-4-5-
E-4-6-------------

Then just play the same parts over again.

Slow part

The Lead in
G---------
D---------
A-6--4----
E-------6-


G----8-----8-6-5-------------------------------
D-------------------8-----8-----------------8--
A-6-----6-------------------/4--6--4-----------
E----------------6-----6-------------4-5-6-----


G----------------------8--------------------------------
D-8-6---------------------------------------------------
A-----8-6-4---------6-----6----0-1---1-1-1-1-1-1-1--2-3-
E-----------6-4-1-0----------4------1-1-1-1-1-1-1-1-----

G-------------------
D-------------------
A-4--6--4-----------
E----------4-5--6---

rock1813@hotmail.com
Comments