Ben Folds Five - Narcolepsy Chords & Tabs

 

Narcolepsy Chords & Tabs

Ben Folds Five Chords & Tabs

Version: 1 Type: Bass Tab 0 ratings
1 star 2 stars 3 stars 4 stars 5 stars
comments

Narcolepsy Bass Tab

"Narcolepsy" by Ben Folds Five
Tabbed by Tim Swan


Intro Part 1- Play 2x - Listen for where to come in
G----12-12----12-12-----12-12-----12--------
D------------------------------------12-----
A-10-------10--------10--------10-------10--
E-------------------------------------------

Intro Part 2 - 
Basically just hit C a bunch of times.  It goes back to Intro part 1 
an octave down and back to a C.  Pretty simple.


Bridge

Play 2 times
G-----------------------------------------------------
D-----------------------------------------------------
A-3-3-3-3-3-3-3-3-3-3-3--6-7-8-8-8-8-8-8-8-8-8-8-7-6--
E-----------------------------------------------------

[ Tab from: http://www.guitartabs.cc/tabs/b/ben_folds_five/narcolepsy_btab.html ]
Into "I know it seems" - Play 2 times
G----------------------------------------------------
D-6-6-6-6-6-6-6-6-6-6-6-6--7-7-7-7-7-7-7-7-7-7-7-7---
A----------------------------------------------------
E----------------------------------------------------

G---------------------------------------------------
D-9-9-9-9-9-9-9-9-9-9-9-9--10-10-10-10-10-10--------
A--------------------------------------------10-----
E-----------------------------------------------8---


Here I got to lasy to type out evry single number, so just follow the 
changes with the piano as the notes change.  Just listen to it.
"While I was dreaming..."
G--------------------------------
D-6----5----4----3---------------
A------------------------2--3----
E--------------------3-----------


Then just play the other parts until the end.

rock1813@hotmail.com
Comments