Ben Folds Five - Missing The War Chords & Tabs

 

Missing The War Chords & Tabs

Ben Folds Five Chords & Tabs

Version: 1 Type: Bass Tab 0 ratings
1 star 2 stars 3 stars 4 stars 5 stars
comments

Missing The War Bass Tab

"Missing the War" by Ben Folds Five
Tabbed By Tim Swan

First verse - "Now nothings adding up"
G----------16--------------------
D-14-16-18----20-----4--6--8---9--
A----------------------------9----
E--------------------------------

First Chorus
G-------------------------------
D---------9---------------------
A---------------------7---------
E-5--8--7---2----5--7---9--5--7-

Second verse
G-------------------------------------------------
D-------------------------------------------------
A--7---7--7-7--9---9--9-9-------------------7-----
E-------------------------7--7-6/7--7-7--0-----2--

Second Chorus
G--------------------------------------------------------------------
D---7-----7---7-----7------------------------------------------------
A------------------------------------------7--7-7--------------------
E-5---5-5---5---5-5----6-7-8--8--8--8--8-8--------9--9-9--2--2-2--2--
[ Tab from: http://www.guitartabs.cc/tabs/b/ben_folds_five/missing_the_war_btab.html ]
G------------------------------------
D------------------------------------
A-10----10---7-9-11--------7-5-------
E----10----------------9-7-----5--7--

THird verse - Same as the other verses just more notes
G-----------9\-------------------------------------------------------
D--------------------------------------------------------------------
A-7--7-7--7---7-7--9--9-9--9--9-9------------------------7-7----9-9--
E----------------------------------7-6/7-7-6/7-6\7-7--5------7-------

Third Chorus
G---------------------------------------------------------------------
D---7---7---7---7----------------------------------------4---4---4---4
A---------------------------------------7--7-7------------------------
E-5---5---5---5---6-7-8--8--8-8--8--8-8--------9--9-9--2---2---2---2--

End Part - Play four times
G----------------------
D---7---9--------------
A-------------7-----9--
E-5---7---5-5---7-7----

The last little bit
G--------------------
D--------------------
A-10----10---7-9-11--
E----10--------------


rock1813@hotmail.com
Comments