Ben Folds Five - Mess Chords & Tabs

 

Mess Chords & Tabs

Ben Folds Five Chords & Tabs

Version: 2 Type: Bass Tab 0 ratings
1 star 2 stars 3 stars 4 stars 5 stars
comments

Mess Bass Tab

"Mess" by Ben Folds Five
Tabbed By Tim Swan

Intro - Wait a little before starting
G----------------------------|
D-5--5--5----5----5----5-----|
A---------5----5----5----5---|
E----------------------------|

Verse - "There was a time..."
G------------------------------------------------------------|
D-5---5-----3-----------5--5--5--5----5-3-----------5--5--5--|
A---5----3-----6-----5--------------3------6-----5-----------|
E-----------------6---------------------------6--------------|
[ Tab from: http://www.guitartabs.cc/tabs/b/ben_folds_five/mess_btab_ver_2.html ]
Chorus - "And I don't believe in..."
G---------------------------------------------------------------|
D-3---3-----------5---5---3---3---3---3-----------5---5---3---3-|
A---3---3-6---6-----5---5---3---3---3---3-6---6-----5---5---3---|
E-----------6---6---------------------------6---6---------------|

Piano Solo - This is played twice.  The second time is filled with alot
more fills than this.
G------------------------------------3-3------------|
D-5--5--5--5-5---5---3----5-3-----------3------7-5--|
A--------------5---5--5-3-----3-6-6-------5-55------|
E----------------------------------6----------------|

Verse

Chorus

At the end of the chorus - "I have made the same mistakes"
G----------------5---5---5-------7---7---7-|
D------------------------------------------|
A-6---------3--3---3---3----5--5---5---5---|
E------------------------------------------|

Verse - This next verse there is nothing but drums for the first couple
lines, so just listen as to where to come in.

Chorus

Then end on a G

Questions?
rock1813@hotmail.com
Comments