Ben Folds Five - Magic Chords & Tabs

 

Magic Chords & Tabs

Ben Folds Five Chords & Tabs

Version: 2 Type: Chords

Magic Chords

   
-------------------------------------------------------------------------------
			     Magic - Ben Folds Five
-------------------------------------------------------------------------------
Tabbed by: Adam Warburton
Written by: Darren Jessee
Date Tabbed: 13th May 2006 
Tuning: Standard. E,A,D,G,B,E

Fig 1
   Dm                       C          F   Dm               C       F   Bb
e|-1-----------------------------------1---1------------------------1----------|
B|-3------------------------1----------1---3----------------1-------1---3------|
G|-2------------------------0----------2---2----------------0-------2---3------|
D|-0------------------------2----------3---0----------------2-------3---3------|
A|--------------------------3----------3--------------------3-------3---1------|
E|-------------------------------------1----------------------------1----------|
     From the back of your big brown eyes. I new she'd be gone as soon as she                     

       C     F      Bb        C
e|-----------1------------------------------------------------------------------|
B|-----1-----1------3---------1-------------------------------------------------|
G|-----0-----2------3---------0-------------------------------------------------|
D|-----2-----3------3---------2-------------------------------------------------|
A|-----3-----3------1---------3-------------------------------------------------|
E|-----------1------------------------------------------------------------------|
     could. And i hoped she would.
[ Tab from: http://www.guitartabs.cc/tabs/b/ben_folds_five/magic_crd_ver_2.html ]
Fig 2
                     Bb                   C            Dm                  Bb
e|-----------------------------------------------------1------------------------|
B|-------------------3--------------------1------------3-------------------3----|
G|-------------------3--------------------0------------2-------------------3----|
D|-------------------3--------------------2------------0-------------------3----|
A|-------------------1--------------------3--------------------------------1----|
E|------------------------------------------------------------------------------|
      Saw you last night, danced by the light of the moon. Stars in your eyes 

                      C            Dm
e|---------------------------------1--------------------------------------------|
B|--------------------1------------3--------------------------------------------|
G|--------------------0------------2--------------------------------------------|
D|--------------------2------------0--------------------------------------------|
A|--------------------3---------------------------------------------------------|
E|------------------------------------------------------------------------------|
      free from the life that you new.

Fig 3
     Dm                      C        F       Bb       C      Dm
e|---1--------------------------------1-----------------------1-----------------|
B|---3-----------------------1--------1-------3--------1------3-----------------|
G|---2-----------------------0--------2-------3--------0------2-----------------|
D|---0-----------------------2--------3-------3--------2------0-----------------|
A|---------------------------3--------3-------1--------3------------------------|
E|------------------------------------1-----------------------------------------|
       Your the magic that holds the sky up from the ground,   the draft that

          C         F         Bb   C   Dm              C    F    Bb  C
e|------------------1------------------1--------------------1-------------------|
B|--------1---------1---------3----1---3---------------1----1----3---1----------|
G|--------0---------3---------3----0---2---------------0----2----3---0----------|
D|--------2---------3---------3----2---0---------------2----3----3---2----------|
A|--------3---------3---------1----3-------------------3----3----1---3----------|
E|------------------1---------------------------------------1-------------------|
       blows these cool winds round.    trade places with angles now