Ben Folds Five - Luckiest Chords & Tabs

 

Luckiest Chords & Tabs

Ben Folds Five Chords & Tabs

Version: 1 Type: Tab 0 ratings
1 star 2 stars 3 stars 4 stars 5 stars
comments

Luckiest Tab

This is my first tab. I transcribed it straight from http://zesty.ca/scores/

e :---2------------------2-----0-------27--275----5---3----3-----|
B :-----3---3-0------------3-----2----3---3--------2-------------|
G :------2------------------2------2-0----------2----2---0--30---|
D :--4-----------------4-----------------------------------------|
A :--------------------------------------------------------------|
E :-------.-----------.------.------.-------.--------.-------.---|

e :-2---20--|--------|--302-5-2-------3--------272---2-----------|
B :----3-2--|-- 6 --|---------3-0-03--302----3-------30---------|
G :----2----|-counts-|------2---------------2--------------------|
D :---------|of rest-|-------------------------------------------|
A :---------|--------|-------------------------------------------|
E :------.--|-----.--|----.-----.-------.-------.------.---------|

e :-0---------------0-----50--0---023-2----5-------3---2-----25--|
B :-1----1-1-1-----1-2--2---2-2-------3------3---0--30-3----3----|
G :-2---0----0----0--2-2------2-------2--2-------------2---2-----|
D :----2---4-2---2-----------------------------------------------|
A :--------5-----------------------------------------------------|
E :---------.-------.-------.--------.-------.-------.--------.--|

e :-7----2--2-------------27-----73---3-7-------------------5----|
B :-7------32----20-2--3-2-7----7-3----37----7--------0-2----2---|
G :---------2---2----------7---7--5--5-7-----701--2-1--------2--|
D :--------------------------------------------------------------|
A :--------------------------------------------------------------|
E :--------.-------.------.-------.----.-------.-------.------.--|

e :-5-----5-3------3-----32-----20---------------2------0--------|
B :------2--3----2-3----3-3----3-2--------3-----3-2--3-2---------|
G :-----2---5---02-5---5------0-----------2----2-----------------|
D :---------------------------------------4---4------------------|
A :--------------------------------------------------------------|
E :--------.------.------.------.--------.-------.--------.------|

e :-7--------------3----3--2---0----------2----0-5---2------------|
B :-----7-0---0--2-3-----3-3---2---3-----3-2-3-2-------3---2-0----|
G :-7----7-2----2--5---5--5----2---2----2----5----------2---------|
D :--------------------------------4---4------------4-------------|
A :---------------------------------------------------------------|
E :-------.-------.-------.-------.-------.-------.------.--------|

e :---2----0-----2-----20--50-2------------3--2------22----2-----|
B :----3----2----3----3-3----3-----3--0---0---3-----3-0-----30---|
G :-----2--------2---2--2--------2------------2----2-------------|
D :--4--------------------------4-----------------4--------------|
A :--------------------------------------------------------------|
E :------.------.------.-----.-------.-------.-------.-------.---|
[ Tab from: http://www.guitartabs.cc/tabs/b/ben_folds_five/luckiest_tab.html ]
e :-0--------------00-----055-----5-2------------3--2------2-----|
B :-1---1---------1-2----2--5----2-------3--0--0--203-----3------|
G :-0--0----0----0--2--22---7---2--2---0------------2----2-------|
D :---2---4-2---2-------------------------4-------------4--------|
A :-------5------------------------------------------------------|
E :--------.-------.-------.-------.-------.-------.-------.-----|


e :-7----2785----2---------(10)-----(10)-7----3--7---2-----------|
B :-----3-------2-0-2--232-(12)-------------0--30------0------0--|
G :------------2-----------(11)-------------------------1--2-----|
D :----------------------------------------------------------1---|
A :--------------------------------------------------------------|
E :--------.-------.------.-------------.-------.------.------.--|

e :------052-----23----3-------32-----20--------5-----5------0---|
B :-2---2-------2-0--03-2-3---3-0----3-1--------6----3-2--3-2----|
G :------------2--------2-4--4------0-----------7---2------------|
D :---------------------------------------------7----------------|
A :--------------------------------------------------------------|
E :-------.------.-------.-----.------.--------.------.-------.--|

e :-7---72--------3-----32--0---5-----5----0-5-3------3-0----037-|
B :-7-----3---0--20---03-3--2---7----3-2-3-2---5------------3----|
G :-7------2----2--------2--2---7---2--2-4-----4-----------------|
D :-----------------------------7--------------------------------|
A :--------------------------------------------------------------|
E :-------.------.------.------.------.-------.--------.-------.-|

e :-7-----27----25-5------3----3--2-------0----------2-50---5----|
B :-7----------3-5-7----7-3--0--303-------2-----------3-2--------|
G :-7------------6-7---7--4------------------------2---------0---|
D :--------------------------------------------------------------|
A :--------------------------------------------------------------|
E :-------.-------.------.-------.-------.-------.-----.------.--|

e :-2--------------2-----257---2--0----32-3-----05----053----03--|
B :-3---3---0--2-033----3--7----301---1-3-5----1-5---2--5--------|
G :----2---2-------4---4---7------0--0--------0--6------6---2--2-|
D :--------------------------------------------------------------|
A :--------------------------------------------------------------|
E :--------.------.-------.------.-------.------.------.-------.-|

e :-2--------------5-----257----795----2---------7------7----3---|
B :------3-----2--37----3-----3-------3-0-2--232-7---------0--30-|
G :----0---23----3-7---2-------------2-----------7---------------|
D :----------------------------------------------9---99----------|
A :--------------------------------------------------------------|
E :--------.------.-------.------.-------.------.------.-------.-|

e :-7---72---------0---0--2----2-3----3--3-----3-2---2---0------5-----5-|
B :-7-----0--------2----2-----2--3---3-2-3----3--3---3---2------7----3--|
G :-7------1--2-12-2-----2---2--24--4--2-4---4--42---2---2------7---2---|
D :-9-------------------------------------------------------------------|
A :---------------------------------------------------------------------|
E :-------.-------.------.------.-------.-------.-------.------.--------|

e :-------0-7---72--------3-----32---0---7---72-5----5--3----3--2-20----|
B :-2--3-2--7-----3---0--23----3-3---2---7-----3------2----0--30-3------|
G :---------7------2----2-4---4----------7---------2---2-------------20-|
D :---------------------------------------------------------------------|
A :---------------------------------------------------------------------|
E :--------.------.------.------.-------.------.-------.-------.--------|
Comments