Ben Folds Five - Jane Chords & Tabs

 

Jane Chords & Tabs

Ben Folds Five Chords & Tabs

Version: 2 Type: Bass Tab 0 ratings
1 star 2 stars 3 stars 4 stars 5 stars
comments

Jane Bass Tab

"Jane" by Ben Folds Five
Tabbed by Tim Swan

This song is a text book example of Ben Folds Five bass lines.  They
start off simple and just follows the chords.  But as the song
progressess the lines become more complex, adding in more notes and
fills.  Almost every song is fashioned in this manner.


Intro
G---------|
D---------|
A---------|
E-6----6--|
[ Tab from: http://www.guitartabs.cc/tabs/b/ben_folds_five/jane_btab_ver_2.html ]
Verse -  This is the basic line.  Robert Sledge mostly adds in extra
notes.  Just listen for them, they are easy.
G--------------------|
D--------------------|
A-----4--------------|
E-6-------4---7---6--|

Chorus -
G---------------------------------|
D------------5-7-8-7-3------------|
A-6---5--3-------------5----------|
E------------------------4-3-2-1--|

Solo - Same as the Verse


rock1813@hotmail.com
Comments