Ben Folds Five - Emaline Chords & Tabs

 

Emaline Chords & Tabs

Ben Folds Five Chords & Tabs

Version: 1 Type: Bass Tab 0 ratings
1 star 2 stars 3 stars 4 stars 5 stars
comments

Emaline Bass Tab

"Emaline" by Ben Folds Five
Tabbed By Tim Swan
I tabbed this from there performance on Hard Rock Live.  I did this
 because it has the intro part where as the Naked Baby Photos vesion does not.  


Intro
G-------------------------------------------------------
D-5-------------------5--5-5----------------------------
A------5----------------------5--5-5--------------------
E-----------5---5---------------------5--5-5--3--3-1-0--

G---------------------------------
D-5--5-5--------------------------
A---------5--5-5------------------
E-----------------5--5-5--3--3-3--

Verse - "I wish it was..."
G-----------------------------------------------------------------
D-5--5-5-----------------------------5--5-5-----------------------
A---------5--5-5----------------------------5--5-5------------5-5-
E-----------------5--5-5--3--1-3-1-0---------------5--5-5--3------

Chorus - "When I've heard enough..."
G---------------------------------------------
D------------------------------10-------------
A-7-7---7-7-7---7--77-------------10-11-12----
E-----7-------7-------6-7-8--8----------------

Verse Two - "They're talking now..."
G----------------------------------------------------------------
D-5--5-5--------------------------5--5-5-------------------------
A---------5--5-5--------------------------5--5-5-----------------
E-----------------5--5-5--3--3-3------------------5--5-5--3--3-3-

G------------------------------------------------------------------
D-5--5-5--4--4-4-5-6-7--7-7------------4-5--5-5--------------------
A---------------------------5-6-7--7-7----------3-4-5--5-5---------
E-----------------------------------------------------------5--5-5-

G---------
D---------
A----5-5--
E-3-3-----

Chorus
[ Tab from: http://www.guitartabs.cc/tabs/b/ben_folds_five/emaline_btab.html ]
Bridge - Starts right after the second time you play the chorus
G---------------------------------------4-6-4-
D-------------------------5-------4-5-7-------
A------------------3-4-5----7-5-7-------------
E-3--3-3-4-5-5-0-5----------------------------

"It only took me one look..."
G-----------------------------6-8-9---------------------
D-4---5-----------------6-7-9---------------------------
A---------5----7----7-9---------------------------------
E------------------------------------3--3-3--3-3-3--3-3-

G--------------9-----------------------------------6--14-----
D----------------9------------------------4-5-6-7---------7--
A-5-6-7-7-7--7-----7---6-5-4-3--3--3--3-3--------------------
E------------------------------------------------------------

Solo - "I wish it was..."
G--------------------------12-11-9----------------------
D-5--5-5---------------------------12-10-9-------5--5-5-
A---------5--5-5---------------------------12-10--------
E-----------------55555555------------------------------

G-------------------------------------------------------------
D-------------------------------------5--5-5-5----------------
A-3-4-5--5-5-5----------------------------------5--5-5--------
E---------------5--5-5--3--3-1-3-1-0-------------------5--5-5-

G----------------------
D-------------------7--
A------5-5/7/19--3-----
E-3--3-----------------

"Don't let me walk away..."
G----------------------------------------------------------
D-5-5--------------------------5--345-5-2\-----------------
A-----7\--5-5-5--------------5-------------345-5-2---------
E---------------7\--5-5-2--3------------------------5-5-2--

G-------------
D-5-4-------4-
A-----7-5-7---
E-------------
This leads right into the next verse

The Next Verse - "Oh what advice..."
G--------------------------------------------------------
D-5--5-5--4--4-4--5-6-7--7-7-------------5--5-5----------
A----------------------------5-6-7--7-7----------5--5-5--
E--------------------------------------------------------

G------------------
D------------------
A-------------5-5--
E-5--5-5--3-3------

After that just play the chorus again and then play variations on the 
verses till the end.

rock1813@hotmail.com
Comments