Ben Folds Five - Cigarette Chords & Tabs

 

Cigarette Chords & Tabs

Ben Folds Five Chords & Tabs

Version: 1 Type: Tab 0 ratings
1 star 2 stars 3 stars 4 stars 5 stars
comments

Cigarette Tab

intro

e-------------------------------------------------|
B-------------------------------------------------|
G-7-----7-5---5-5-----5-3---3-3-----3-2--0-0--3---|
D---0-----4---------3---3---------2---2--2-3--3---|
A-----8---5-------5-----5-------4-----4--4-4--5---|
E-------------------------------------------------|

e-------------------------------------------------|
B----------------4-4-4---5-5-5---4----------------|
G-7-----8-8------3-3-3---3-3-3---3----------------|
D---0-----8------5-5-5---5-5-5---5----------------|
A-----8---10--------------------------------------|
E-------------------------------------------------|

e-------------------------------------------------|
B-------------------------------------------------|
G-7-----7-5---5-5-----5-3---3-3-----3-2--0-0--3---|
D---0-----4---------3---3---------2---2--2-3--3---|
A-----8---5-------5-----5-------4-----4--4-4--5---|
E-------------------------------------------------|
Fred Jones was worn out from caring for his often
[ Tab from: http://www.guitartabs.cc/tabs/b/ben_folds_five/cigarette_tab.html ]
e-------------------------------------------------|
B----------------4-4-4---5-5-5---4-4-4------------|
G-7-----8-8------3-3-3---3-3-3---3-3-3------------|
D---0-----8------5-5-5---5-5-5---5-5-5------------|
A-----8---10--------------------------------------|
E-------------------------------------------------|
screaming and crying wife during the day,

e---------------1---|
B-------4-----3-----|
G-----3-----3-------|
D---5-----3---------|
A-6-----------------|
E-------------------|
but he couldn't sleep at night for fear that

e---------------1---3-|
B-------4-----3-----4-|
G-----3-----3-------3-|
D---5-----3-----------|
A-6-------------------|
E---------------------|
she, in a stupor from the drugs that didn't ease the pain,

e-3-3-3-3---3---3-|
B-4-4-4-4---4---4-|
G-3-3-3-3---2---3-|
D-----------------|
A-----------------|
E-----------------|
would set the house ablaze with a

e-------------------------------------------------|
B-------------------------------------------------|
G-7-----7-5---5-5-----5-3---3-3-----3-2--0-0--3---|
D---0-----4---------3---3---------2---2--2-3--3---|
A-----8---5-------5-----5-------4-----4--4-4--5---|
E-------------------------------------------------|
cigarette
Comments