Ben Folds Five - Best Imataion Of Myself Chords & Tabs

 

Best Imataion Of Myself Chords & Tabs

Ben Folds Five Chords & Tabs

Version: 1 Type: Bass Tab 0 ratings
1 star 2 stars 3 stars 4 stars 5 stars
comments

Best Imataion Of Myself Bass Tab

"The Best Imatation Of Myself" by Ben Folds Five
Tabbed by Tim swan

Verse One - "Do you think I should Take..."
G-------------------------------------------------
D--------------------------------5-5-----5-5------
A-------------------------------------------------
E-3-3-3-3--4-4-4-4--5--3--2--1-3-----1-3-----1-3--

Into Verse Two
G--------------------------------------------------------------
D--------------------------------------------------------------
A-3-3-3-3-3-3-----3-3-3-3-3-3-----3-3-3-3-3-3-----3-3-3-3-3-3--
E-------------5-3-------------5-3-------------5-3--------------
[ Tab from: http://www.guitartabs.cc/tabs/b/ben_folds_five/best_imataion_of_myself_btab.html ]
Verse Two - "the problem"
G----------------------------------------------------------------
D----------------------------------------------------------------
A-3-3-3-3-3-3-2-2------------------------------------------5-5-5-
E-----------------5-5-5-5-5-5--3-3-1-1-1-1--3-3-3-3--5-5-5-------

"Now if it's all the same"
G--------------------------------------------------------------------
D-----------------------------------5-5-----5-5----------------------
A---------------------------------------------------3-3-3-3-3-3-3-3--
E-3-3-3-3--4-4-4-4--5-5-3-3-2-2-1-3-----1-3-----1-3------------------

Bridge
G---------------------------2-----2-------------9-7-------------
D-----------------------3-5---5-3-----------6-9-----7-7-5-5-4-4-
A------------------------------------7---7----------------------
E-0-0-4-4-5-5-3-3--4-5-----------------7------------------------

Verse Two Again 
Just play this at the end

G--------------------------------------
D-----5-5-----5-5----------------------
A---------------------2-3-4-5------5---
E-1-3-----1-3-----1-3---------1-3------


rock1813@hotmail.com
Comments