Ben Folds Five - Air Chords & Tabs

 

Air Chords & Tabs

Ben Folds Five Chords & Tabs

Version: 2 Type: Bass Tab 0 ratings
1 star 2 stars 3 stars 4 stars 5 stars
comments

Air Bass Tab

"Air" by Ben Folds Five
Tabbed by Tim Swan


1st Verse - Come in just before "Through murky beams..."
G---------------------|
D-3---3-2----2--------|
A---------------5-----|
E------------------3--|

2nd Verse
G----------------------4-5-9-10-12-------------------------------|
D--------------------5-------------------------------------------|
A-3--33--------5--55-----------------3--33--------/5--55---55-55-|
E--------3--33------------------------------3--33--------5-------|


G----------------------9---------------------------|
D-3---33--2--22----6-9---9---9---------------------|
A---3------------7---------9---9--5--55------------|
E----------------------------------------3--33--3--|
[ Tab from: http://www.guitartabs.cc/tabs/b/ben_folds_five/air_btab_ver_2.html ]
Chorus part one - 2x "I'm comming up..."
G---------------------------------|
D---------------------------------|
A---------------------------------|
E-8--/3--33--/10-10-10-/10--8-88--|

Chorus part two - Scales!
G-----------5-7-8-10--8-7-5------------5-7-8-----------5-7-8-10--|
D-----5-6-8----------------------5-6-8-----------5-6-8-----------|
A-6-8------------------------6-8-------------6-8-----------------|
E----------------------------------------------------------------|

Verse 3 - play twice
G-------------------------|
D-------------------------|
A-3--3-3--------/5--5-5---|
E--------3--3-3-----------|

Play the First part of the chorus until it slows down.

Outro - Almost the same as the scale part of the chorus.

G-----------5-6-7-8-5----------|
D-----5-6-8--------------------|
A-6-8-------------------6-5-3--|
E------------------------------|


rock1813@hotmail.com
Comments