Belvedere - The Bottom Line Chords & Tabs

 

The Bottom Line Chords & Tabs

Belvedere Chords & Tabs

Version: 1 Type: Bass Tab 0 ratings
1 star 2 stars 3 stars 4 stars 5 stars
comments

The Bottom Line Bass Tab

Song:The bottom line
Artist:Belvedere
Tabbed by:Dré

Intro
G|--------------------------------------|
D|--------------------------------------|
A|5-5-5-5-5-------------5-5-----3-3-----|
E|----------5-5-5-5-5-------6-6-----5-5-|
                    4x

Pre-verse
G|-----------------------------------------------------|
D|-----------------------------------------------------|
A|-------1-1----5-5----1-1-----------1-1----5-5----3-3-|
E|1-1-------------------------1-1----------------------|
[ Tab from: http://www.guitartabs.cc/tabs/b/belvedere/the_bottom_line_btab.html ]
Verse
G|-----------------------------------------|
D|-----------------------------------------|
A|----------1-1-1-1-1--5-5-5-5-5--1-1--3-3-|
E|1-1-1-1-1--------------------------------|
                      4x

Chorus
G|--------------------|
D|--------------------|
A|-----1--1------3--3-|
E|5--5------1--1------|
           4x

Outro
G|----------------------------------------|
D|----------------------------------------|
A|----------3-3-3-3-3-0-0-0-0-0-1-1-1-1-1-|
E|1-1-1-1-1-------------------------------|
                     4x

G|------------------------------------------------|
D|------------------------------------------------|
A|5-5-5-5-5-------------5-5-----3-3-----5--5--5--5|
E|----------5-5-5-5-5-------6-6-----5-5-----------|


Order

Intro
Pre-verse
Verse
Chorus
Pre-verse
Verse
Chorus
Outro
Comments