Beloved - Insult To Injury Chords & Tabs

 

Insult To Injury Chords & Tabs

Beloved Chords & Tabs

Version: 1 Type: Tab 0 ratings
1 star 2 stars 3 stars 4 stars 5 stars
comments

Insult To Injury Tab

   
Beloved - Insult to Injury (end of the song guitar lick)
Tunning = Db Ab Db Gb Bb Eb
Author = Chase
*=Harmonics
p=Pull Off
[ Tab from: http://www.guitartabs.cc/tabs/b/beloved/insult_to_injury_tab.html ]
(repeat alot)
|-------------------------------7*----|
|-------9------------------------7*---|
|---6-5---------------------------7*--|
|-8-------6p5-6-10p6-10p6-5-8p5----7*-|
|-------------------------------------|
|-------------------------------------|


|-------------------------------7*----|
|-------9------------------------7*---|
|---6-5---------------------------7*--|
|-8-------6p5-6-10p6-10p6-5-8p5----7*-|
|-------------------------------------|
|-------------------------------------|

Yea this works for me, so shred on shredders.
Comments