Belle And Sebastian - You Don't Send Me Intro Chords & Tabs

 

You Don't Send Me Intro Chords & Tabs

Belle And Sebastian Chords & Tabs

Version: 1 Type: Chords 1 rating
1 star 2 stars 3 stars 4 stars 5 stars
comments

You Don't Send Me Intro Chords

   
##################################################################################
# This file is the author's own work and represents their interpretation of the  #
# song. You may only use this file for private study, scholarship, or research.  #
##################################################################################

Belle And Sebastian - You Don't Send Me

a pretty easy song...no need for a capo, even.
they switched the chords up a little on the second chorus,
but the third chorus is the same as the first.

there are no chords in the intro, but there are some piano chords when it's repeated later.
it's basically fiddling around with A7 and A and E7 and E.
the chords below are just some suggested chords, if you've got an accompianist, or four arms.


intro
[ Tab from: http://www.guitartabs.cc/tabs/b/belle_and_sebastian/you_dont_send_me_intro_crd.html ]
    A7      A      A7    A     A7      A      A7    A
----------7-9-7----------------------7-9----------------  x2
----8-10--------10-8--10-------8-10------10---10--------
--9----------------------9---9--------------9-----------
--------------------------------------------------------
--------------------------------------------------------
--------------------------------------------------------

    E7     E     E7   E      E7     E     E7    E
---------2-4-2--------------------2-4-------------------  x2
----3-5--------5-3--5--------3-5------5---5-------------
--4-------------------4----4------------4---------------
--------------------------------------------------------
--------------------------------------------------------
--------------------------------------------------------

Comments