Belle And Sebastian - Im A Cuckoo Chords & Tabs

 

Im A Cuckoo Chords & Tabs

Belle And Sebastian Chords & Tabs

Version: 1 Type: Bass Tab 0 ratings
1 star 2 stars 3 stars 4 stars 5 stars
comments

Im A Cuckoo Bass Tab

--------------------------------
I'M A CUCKOO - Belle & Sebastian
--------------------------------

tabbed by: Fuzzbap (Lee Wilson)
e-mail: fuzzbap_at_hotmail_dot_com

Tuning: standard

My first ever tab! Be gentle...


Intro
|11---11---11---------|11---11---11---------|-----------------|
|--------------11-13--|--------------13-11--|9---9---9--8-----|
|---------------------|---------------------|-------------11--|
|---------------------|---------------------|-----------------|

|-----------------|-----------------|-----------------|
|--------------8--|9---9---9--8-----|-----------------|
|9---9---9--11----|-------------11--|9---9---9--8-----|
|-----------------|-----------------|-------------11--|

|------------------|----------------|----------------|
|------------------|----------------|----------------|
|------------------|----------------|-----------1-4--|
|9---9---9--9-/11--|7---7---7--6-4--|2---2---4-------|

|-----------6-8--|
|4---4---4-------|
|----------------|
|----------------|


The first time, the verse is:
|----------------|----------------|----------------|
|4---------------|----------------|----------------|
|----------------|2---------------|1---------------|
|----------------|----------------|----------------|

|----------------|----------------|----------------|
|----------------|----------------|----------------|
|----------------|1---------------|----------------|
|4---------------|----------------|4---------------|

|----------------|----------------|----------------|----------------|
|----------------|----------------|----------------|----------------|
|1---------------|2---1---1---4-6-|4-----------1---|4---------------|
|----------------|------4---------|----------------|----------------|

[ Tab from: http://www.guitartabs.cc/tabs/b/belle_and_sebastian/im_a_cuckoo_btab.html ]
The rest of the time, it has a slightly simpler ending, the last three bars being:
|----------------|----------------|6---------------|
|----------------|--------6-------|----------------|
|2-------1-----6-|4---------------|----------------|
|----------------|----------------|----------------|


Chorus
|----------------|----------------|----------------|
|----------------|----------------|----------------|
|6---------------|4---------------|----------------|
|----------------|----------------|7---------------|

|----------------|----------------|----------------|
|----------------|----------------|----------------|
|----------------|----------------|----------------|
|6---------------|7---------------|6---------------|

|----------------|----------------|
|----------------|----------------|
|4---------------|2---------------|
|----------------|----------------|


Middle part
|----------------|----------------|----------------|
|----------------|----------------|----------------|
|2----------2----|----------------|4----------4----|
|----------------|4----------4----|----------------|

|----------------|----------------|----------------|
|----------------|----------------|----------------|
|1----------1----|6----------6----|6------6--------|
|----------------|----------------|------------6---|

|----------------|----------------|----------------|
|----------------|----------------|----------------|
|6----------6----|----------------|4---------------|
|----------------|4----------4----|----------------|

|----------------|
|----------------|
|-----4---4-4----|
|----------------|


The order is:

Intro x2
Verse x2
Chorus
Verse x2
Chorus
Intro x2
Verse x2
Chorus
Middle part
Verse x2
Chorus
Intro x2

I think it's fairly accurate, have a listen to the song to get the timings.
Comments