Bell X1 - White Water Song Chords & Tabs

 

White Water Song Chords & Tabs

Bell X1 Chords & Tabs

Version: 1 Type: Bass Tab 1 rating
1 star 2 stars 3 stars 4 stars 5 stars
comments

White Water Song Bass Tab

It is a current favourite of mine this song.
Played a cover of it at a gig and went down a storm.
Nice one to show your mates too.

Intro and conveniently the chorus too... saves me a job at least

G-----------------------------------------------
D-----------------------------------------------
A------------------------------5-5-------5-7----
E----7-7-7-5-5-7-7-7-5-5-3-3-3-----3-3-3--------     Repeat a fair few times

verse is:

G----------------------------------------------------------------------------------
D--(Says something about finishing a chic off and a couch)-------------------------
A----------------------------------------------------------------------------------
E----------------------------------------------------------7-7-7-7-5-5--7-7-7-7-5-5- repeat until the bridge
[ Tab from: http://www.guitartabs.cc/tabs/b/bell_x1/white_water_song_btab.html ]
(don't play anything between the lyrics the first time/ improvise if you like)

Bridge:

G-----------------------------------------------------------------------------------------
D-----------------------------------------------------------------------------------------
A-----------------------------------------------------------------------------------------
E--5-7h-7-7-7-7-7/12h-14-14-14-14-14-14-10-12h-12-12-10-12h-12-12-10-12h-12-12-10-12h-12-12 repeat a couple of times

Then Play intro

Verse 2:

G-----------------------------------
D-----------------------------------
A---7/9\5/10------------------------
E------------7-7-7-7-5-5-7-7-7-7-5-5  repeat a few times then go to the bridge and chorus again then done

Apologies for not counting the number of times but I am lazy.

Enjoy the song, if any problems or wanting more tabs, e-mail me at:

porgs_69@hotmail.com
Comments