Bell X1 - Beautiful Madness Chords & Tabs

 

Beautiful Madness Chords & Tabs

Bell X1 Chords & Tabs

Version: 1 Type: Tab 0 ratings
1 star 2 stars 3 stars 4 stars 5 stars
comments

Beautiful Madness Tab

   
 Bell x1 - Beautiful Madness - Neither Am I
 Tabbed by: Sian Clarke - sianclarke1983@hotmail.com


 Theres some slide guitar in this song too, when the tinkly riff is playing, but I can't be bothered to work it
 out sorry :'p

 Chords: Am  x02210  (they may play them elsewhere on the fretboard in different positions, but this is easiest)
         C   x32010
         G   320033
         D   xx0232
         Em  022000

 Intro:    Am                      C                G                D
         e------------10--15--12-|----10--15--12--|-----10-----15-|--10--12--15--14--12p10-|
         b(13s19)-13-------------|-13-------------|-12-----12-----|------------------------|
         g-----------------------|----------------|---------------|------------------------|
         d-----------------------|----------------|---------------|------------------------|
         a-----------------------|----------------|---------------|------------------------|
         e-----------------------|----------------|---------------|------------------------|

           Am               C                D                       D   
         e-----10--15--12-|----10--15--12--|-10--12--15--14--12p10-|-10--12--15--14--12p10-|
         b-13-------------|-13-------------|-----------------------|-----------------------|
         g----------------|----------------|-----------------------|-----------------------|
         d----------------|----------------|-----------------------|-----------------------|
         a----------------|----------------|-----------------------|-----------------------|
         e----------------|----------------|-----------------------|-----------------------|(whole thing x2)



 Verse: 
       Am              C          G              D
         Give me an opinion, cos I don't have one
       Am          C                      D      D
         I'll agree with you if you're right
       Am                             C                  G                 D
         I always know where you're coming from, though I've never been there
       Am            C                       D               D
         I have to steal from you when you write


 Chorus:
                           G  C              D
        Your beautiful madness, my beautiful grief
                          Em  C                       D
        Your dreams are my torture, your dreams my relief

[ Tab from: http://www.guitartabs.cc/tabs/b/bell_x1/beautiful_madness_tab.html ]
 Middle:   Am                      C                G                D
         e------------10--15--12-|----10--15--12--|-----10-----15-|--10--12--15--14--12p10-|
         b(13s19)-13-------------|-13-------------|-12-----12-----|------------------------|
         g-----------------------|----------------|---------------|------------------------|
         d-----------------------|----------------|---------------|------------------------|
         a-----------------------|----------------|---------------|------------------------|
         e-----------------------|----------------|---------------|------------------------|

           Am               C                D                       D   
         e-----10--15--12-|----10--15--12--|-10--12--15--14--------|-10--12--15--14--12p10-|
         b-13-------------|-13-------------|-----------------------|-----------------------|
         g----------------|----------------|-----------------------|-----------------------|
         d----------------|----------------|-----------------------|-----------------------|
         a----------------|----------------|-----------------------|-----------------------|
         e----------------|----------------|-----------------------|-----------------------|


 Verse: (same chords as verse 1)

        I'll give you an opinion, cos I just found one

        You won't agree with me out of spite

        I lay siege to your fortress, but you'll never give in

        No, you'll just change your mind


 Chorus: (same chords as before)

        Your beautiful madness, my beautiful grief

        Your dreams are my torture, your dreams my relief

        Your beautiful madness, my beautiful grief

        Your dreams are my torture, your dreams my relief


 Bridge:
                 G                    C               D
        You're mad to burn, mad to fly, mad to be saved
                 Em                   C                 D
        I stumble through the darkness looking for the day
                 G                    C                    D
        Yeah, fabulous yellow roman candles, explode like spiders across the sky
                   Em                 C          D           
        and in the sparkling of the day, we all go, we all go, we all, go -----


 Outro:  
          G                C                D                       D
        e-----10-----15--|-----12-----15--|-10--12--15--14--------|-10--12--15--14--12p10-|
        b-12-----12------|-12-----12------|-----------------------|-----------------------|
        g----------------|----------------|-----------------------|-----------------------|
        d----------------|----------------|-----------------------|-----------------------|
        a----------------|----------------|-----------------------|-----------------------|
        e----------------|----------------|-----------------------|-----------------------|
          Em               C                D                       D                     
        e-----12-----15--|-----12-----15--|-10--12--15--14--------|-10--12--15--14--12p10-|
        b-12-----12------|-12-----12------|-----------------------|-----------------------|
        g----------------|----------------|-----------------------|-----------------------|
        d----------------|----------------|-----------------------|-----------------------|
        a----------------|----------------|-----------------------|-----------------------|
        e----------------|----------------|-----------------------|-----------------------| (whole thing x3)
Comments