Belisha - Pain Chords & Tabs

 

Pain Chords & Tabs

Belisha Chords & Tabs

Version: 1 Type: Tab

Pain Tab

   
-------------------------------------------------------------------------------
			     Pain - Belisha
-------------------------------------------------------------------------------
Tabbed by: Stevie B
Email:Stevie_b_@msn.com

Tuning: Standard

(intro and chorus for 1st guitar)
e|-7~-9~-10~-12~-7~-9~-10~-12~-7~-9~-10~-12~-14~-|
B|-----------------------------------------------|
G|-----------------------------------------------|
D|-----------------------------------------------|
A|-----------------------------------------------|
E|-----------------------------------------------|
[ Tab from: http://www.guitartabs.cc/tabs/b/belisha/pain_tab.html ]
(chorus 2nd guitar)
e|---------------------------------|
B|---------------------------------|
G|-4-4-4-4---------2-2-2-2---------|
D|-4-4-4-4-5-5-5-5-2-2-2-2-2-2-2-2-|
A|-2-2-2-2-5-5-5-5-0-0-0-0-2-2-2-2-|
E|---------3-3-3-3---------0-0-0-0-|

(verse)
e|---------------------------------|   |----------------------------|
B|-10-12-12-12-10-10-10-8-8-8-7-7-7|   |-5~-8-10-8-5-7-8-10-8-7-5-7-|
G|---------------------------------|   |----------------------------|
D|---------------------------------|x2 |----------------------------|x2
A|---------------------------------|   |----------------------------|
E|---------------------------------|   |----------------------------|


| /  slide up
| \  slide down
| h  hammer-on
| p  pull-off
| ~  vibrato
| +  harmonic
| x  Mute note
===============================================================================