Bela Fleck And The Flecktones - Scratch N Sniff Live At The Quick Chords & Tabs

 

Scratch N Sniff Live At The Quick Chords & Tabs

Bela Fleck And The Flecktones Chords & Tabs

Version: 1 Type: Bass Tab

Scratch N Sniff Live At The Quick Bass Tab

   
keep in mind this is at the quick and the bass is very different than on the studio 
Victor throws some muted notes in there so listen for those.
Flecktones-scratch n sniff
INRO      p                     p     p h p p
G---p-h---3---------------p-h---3-----5-3-5-3-s-|
D---3-5-s---s-s-s-s-s-s---3-5-s---s-s---------5-|
A-s-----1---2-3-3-4-5-1-s-----1---2-3-----------|
E-3---------------------3-----------------------|
         p   p     p  h h  h h  h h  t          p   p
---p-h-h-3---3-----10-9-10-9-10-9-10-12---p-h-h-3---3---------|
---0-3-5---s---s-s------------------------0-3-5---s---s-s-----|
-s---------1---2-3----------------------s---------1---2-3-----|s-s
-3--------------------------------------3-----------------1-2-|
[ Tab from: http://www.guitartabs.cc/tabs/b/bela_fleck_and_the_flecktones/scratch_n_sniff_live_at_the_quick_btab.html ]
then he seems to be doing some improv along those lines until

G-----------------------------------------2-0---0------------|
D-----------------2---------------------2-----2---4-2-0------|
A-----1-2-2-2-4-2---4-0-3-----1-2-2-2-4----------------------|
E-0-3---------------------0-3---------------------------0----|

he does that several times and also

G--------------------------------------------------------------|
D---------1-1-3-3-6-6---------1-1-3-3-6-5----------------------|
A-----0-0-----------------0-0----------------------------------|
E-3-3-----------------3-3--------------------------------------|

I cant figure out the last part of that riff
well thats all i can give you (did you really expect me to tab the solo??!)
try and figure the rest out yourself you lazy bum.

Jo Wolf tabbed this.