Behemoth - Decade Of Therion Chords & Tabs

 

Decade Of Therion Chords & Tabs

Behemoth Chords & Tabs

Version: 2 Type: Tab 0 ratings
1 star 2 stars 3 stars 4 stars 5 stars
comments

Decade Of Therion Tab

Behemoth.Decade of therion.
Album:Satanica.


The tuning is DGCFAD.Please, RATE this tab!!!!!!!!!!!

Verse 1(3x)
--------------------------------------------------------------
--------------------------------------------------------------
--------------------------------------------------------------
--------9---------10---------10-------------------------------
-----7---------8----------7-----------------------------------
--0--------0-----------0---------0131310----------------------
                                 p.m                          
--------------------------------------------------------------
--------------------------------------------------------------
--------------------------------------------------------------
--------9--------12-------9-----------------------------------
-----7--------8--------7--------------------------------------
--0--------0--------0--------013131---------------------------
                             p.m


Verse 2(2x)
--------------------------------------------------------------
--------------------------------------------------------------
--------------------------------------------------------------
--------------------------------------------------------------
-----10---7-9---3-2---10-7-9----------------------------------
--00----0-----0-----0-----------------------------------------

--------------------------------------------------------------
--------------------------------------------------------------
--------------------------------------------------------------
----------------------99999999--------------------------------
-----10---7-9---3-2---77777777--------------------------------
--00----0-----0-----0-----------------------------------------

Chorus (3x)
--------------------------------------------------------------
--------------------------------------------------------------
--------------------------------------------------------------
--------9--------10-------9-----------------------------------
-----7--------8--------7--------------------------------------
--0--------0--------0--------0131310--------------------------
                              p.m
--------------------------------------------------------------
--------------------------------------------------------------
--------------------------------------------------------------
--------9-------12-------9------------------------------------
-----7-------8--------7---------------------------------------
--0-------0--------0-------0131310----------------------------
                            p.m
Verse 3(4x)
--------------------------------------------------------------
--------------------------------------------------------------
-------------999-101010---------------------------------------
---------999------------101010--------------------------------
--777777-----------------------888888-------------------------
--------------------------------------------------------------

--------------------------------------------------------------
--------------------------------------------------------------
----------3---------------------------3-----------------------
-2--------3---3---2-------3----0------3---3---0----3----0-----
-2--------5---3---2-------3----0------5---3---0----3----0-----
-0------------1---0-------1----2----------1---2----1----2-----

Verse 3(8x)
--------------------------------------------------------------
--------------------------------------------------------------
-------------999-101010---------------------------------------
---------999-----------101010---------------------------------
--777777----------------------888888--------------------------
--------------------------------------------------------------
[ Tab from: http://www.guitartabs.cc/tabs/b/behemoth/decade_of_therion_tab_ver_2.html ]
Break (4x)
--------------------------------------------------------------
--------------------------------------------------------------
-------------------99999------------101010--------------------
--00000-----00000--99999-----00000--101010--------------------
--00000-----00000--77777-----00000--88888---------------------
--22222-----22222------------22222----------------------------


--------------------------------------------------------------
--------------------------------------------------------------
-----------3--------------------------------------------------
--00000----3--3--0--------------------------------------------
--00000----5--3--0--------------------------------------------
--22222-5-----1--2--------------------------------------------

Verse 4(2x)
--------------------||----------------------------------------
--------------------||----------------------------------------
--------------------||----------------------------------------
--0-0----------3-3--||-0-0------------------------------------
--0-0---7~~----3-3--||-0-0---7~~--2~~--3~~--------------------
--2-2----------1-1--||-2-2------------------------------------

-------------------||-----------------------------------------
-------------------||-----------------------------------------
-------------------||-----------------------------------------
--0-0----------3---||-0-0-------------------------------------
--0-0---7~~----3---||-0-0---5555--8888------------------------
--2-2----------1---||-2-2-------------------------------------

Repeating of Break (1x)
--------------------------------------------------------------
--------------------------------------------------------------
--------------------99999----------101010-------------3-------
--00000------00000--99999---00000--101010----00000----3-3--0--
--00000------00000--77777---00000--88888-----22222----5-3--0--
--22222------22222----------22222------------22222--5---1--2--

Verse 5(4x)
--------------------------------------------------------------
--------------------------------------------------------------
---------------------------t16p11p9--t17p12p10----------------
------------------t16p11p9----------------------t17p12p10-----
-t14p9p7-t14p9p7----------------------------------------------
--------------------------------------------------------------

--------------------------------------------------------------
--------------------------------------------------------------
--------------------------------------------------------------
--------------------------------------------------------------
-t15p10p8-t15p10p8--------------------------------------------
--------------------------------------------------------------

--------------------------------------------------------------
--------------------------------------------------------------
---10-9~~~~--3------10-9~~~~-3-------10-9~~~~-3---10-9~~~~3---
-------------3---------------3--3-------------3-----------3-3-
-------------5---------------5--3-------------5-----------5-3-
--------------------------------1---------------------------1-

Repeating of Verse 1(2x)
--------------------------------------------------------------
--------------------------------------------------------------
--------------------------------------------------------------
--------9---------10---------9--------------------------------
-----7---------8----------7-----------------------------------
--0---------0----------0--------0131310-----------------------
                                   p.m
--------------------------------------------------------------
--------------------------------------------------------------
--------------------------------------------------------------
--------9--------12--------9----------------------------------
-----7--------8---------7-------------------------------------
--0--------0---------0--------0131310-------------------------
                                 p.m
END.
Please,rate my tab!!!!!!!!!!!!!!!!!!!!!!!!!
Comments