Behemoth - Decade Of Therion Chords & Tabs

 

Decade Of Therion Chords & Tabs

Behemoth Chords & Tabs

Version: 1 Type: Tab 0 ratings
1 star 2 stars 3 stars 4 stars 5 stars
comments

Decade Of Therion Tab

   
#----------------------------------PLEASE NOTE---------------------------------#
#This file is the author's own work and represents their interpretation of the #
#song. You may only use this file for private study, scholarship, or research. #
#------------------------------------------------------------------------------#
 BEHEMOTH - DECADE OF THERION
 From the Album Satanica
 Copyright 1999 MetalMind Records

 Version 5.0 - April 4, 2002

First version (1.0): November 19, 2001
Transcribed by: benton_glen
For questions, comments, corrections: benton_glen@hotmail.com
You can visit my Website: www.behemoth.ht.st


Notation:
[m] = Artificial Harmonic
~~~ = Vibrato
PM_ = Palm Mute



Tuning: D, G, C, F, A, D




INTRO:

 (1x)
   Guitar 1 (Havoc)
 d[----------------------------------------------------------]
 A[----------------------------------------------------------]
 F[----------------------------------------------------------]
 C[----------9-9-9---------10-10-10---------9-9-9------------]
 G[------7-7-----------8-8--------------7-7------------------]
 D[--0-0-----------0-0--------------0-0-----------0-1-3-1-3--]
  |                                               PM_______
  |Guitar 2 (Nergal)
 d[----------------------------------------------------------]
 A[----------------------------------------------------------]
 F[----------------------------------------------------------]
 C[--2-------------------------------------------------------]
 G[--2-------------------------------------------------------]
 D[--0--------------------------------------------0-1-3-1-3--]
                                                  PM_______

   Guitar 1
 d[----------------------------------------------------------]
 A[----------------------------------------------------------]
 F[----------------------------------------------------------]
 C[----------9-9-9---------12-12-12---------9-9-9------------]
 G[------7-7-----------8-8--------------7-7------------------]
 D[--0-0-----------0-0--------------0-0-----------0-1-3-1-3--]
  |                                               PM_______
  |Guitar 2
 d[----------------------------------------------------------]
 A[----------------------------------------------------------]
 F[----------------------------------------------------------]
 C[--2-2-----------3-3--------------2-2----------------------]
 G[--2-2-----------3-3--------------2-2----------------------]
 D[--0-0-----------1-1--------------0-0-----------0-1-3-1-3--]
                                                  PM_______

 (2x)
   Guitars 1 & 2
 d[----------------------------------------------------------]
 A[----------------------------------------------------------]
 F[----------------------------------------------------------]
 C[----------9-9-9---------10-10-10---------9-9-9------------]
 G[------7-7-----------8-8--------------7-7------------------]
 D[--0-0-----------0-0--------------0-0-----------0-1-3-1-3--]
                                                  PM_______

 d[----------------------------------------------------------]
 A[----------------------------------------------------------]
 F[----------------------------------------------------------]
 C[----------9-9-9---------12-12-12---------9-9-9------------]
 G[------7-7-----------8-8--------------7-7------------------]
 D[--0-0-----------0-0--------------0-0-----------0-1-3-1-3--]
                                                  PM_______


VERSE (2x):

   Guitar 1 & 2
 d[------------------------------------------------]
 A[-----------------------------------------------]
 F[------------------------------------------------]
 C[------------------------------------------------]
 G[---------10---9-7---3-2----7---10-7-9----------]
 D[---0--0-0----0-----0-----0----0-----------------]

 d[------------------------------------------------]
 A[-----------------------------------------------]
 F[------------------------------------------------]
 C[--------------------------------9---------------]
 G[----------10---9-7-----------------7-----7-----]
 D[---0--0-0----0-----0-0-0-0-0-0--------0---------]



CHORUS:

 (1x)
   Guitar 1 (Havoc)
 d[----------------------------------------------------------]
 A[----------------------------------------------------------]
 F[----------------------------------------------------------]
 C[----------9-9-9---------10-10-10---------9-9-9------------]
 G[------7-7-----------8-8--------------7-7------------------]
 D[--0-0-----------0-0--------------0-0-----------0-1-3-1-3--]
  |                                               PM_______
  |Guitar 2 (Nergal)
 d[----------------------------------------------------------]
 A[----------------------------------------------------------]
 F[----------------------------------------------------------]
 C[--2-------------------------------------------------------]
 G[--2-------------------------------------------------------]
 D[--0--------------------------------------------0-1-3-1-3--]
                                                  PM_______

   Guitar 1 (Havoc)
 d[----------------------------------------------------------]
 A[----------------------------------------------------------]
 F[----------------------------------------------------------]
 C[----------9-9-9---------12-12-12---------9-9-9------------]
 G[------7-7-----------8-8--------------7-7------------------]
 D[--0-0-----------0-0--------------0-0-----------0-1-3-1-3--]
  |                                               PM_______
  |Guitar 2 (Nergal)
 d[----------------------------------------------------------]
 A[----------------------------------------------------------]
 F[----------------------------------------------------------]
 C[--2-2-----------3-3--------------2-2----------------------]
 G[--2-2-----------3-3--------------2-2----------------------]
 D[--0-0-----------1-1--------------0-0-----------0-1-3-1-3--]
                                                  PM_______

 (2x)
   Guitars 1 & 2
 d[----------------------------------------------------------]
 A[----------------------------------------------------------]
 F[----------------------------------------------------------]
 C[----------9-9-9---------10-10-10---------9-9-9------------]
 G[------7-7-----------8-8--------------7-7------------------]
 D[--0-0-----------0-0--------------0-0-----------0-1-3-1-3--]
                                                  PM_______

 d[----------------------------------------------------------]
 A[----------------------------------------------------------]
 F[----------------------------------------------------------]
 C[----------9-9-9---------12-12-12---------9-9-9------------]
 G[------7-7-----------8-8--------------7-7------------------]
 D[--0-0-----------0-0--------------0-0-----------0-1-3-1-3--]
                                                  PM_______


VERSE:

 (2x)
   Guitar 1
 d[-------------------------------------------------------------]
 A[-----------------------------------------------------------]
 F[----------------------9-9-9-10-10-10-------------------------]
 C[----------------9-9-9----------------10-10-10----------------]
 G[---7-7-7-7-7-7-------------------------------8-8-8-8-8-8---]
 D[-------------------------------------------------------------]
  |
  |Guitar 2
 d[-------------------------------------------------------------]
 A[-----------------------------------------------------------]
 F[-----------------------------5-------------------------------]
 C[----2------------------------5-------------------------------]
 G[---2------------------------3------------------------------]
 D[----0--------------------------------------------------------]

   Guitar 1
 d[-------------------------------------------------------------]
 A[-----------------------------------------------------------]
 F[----------------------9-9-9-10-10-10-------------------------]
 C[----------------9-9-9----------------10-10-10----------------]
 G[---7-7-7-7-7-7-------------------------------8-8-8-8-8-8---]
 D[-------------------------------------------------------------]
  |
  |Guitar 2
 d[-------------------------------------------------------------]
 A[-----------------------------------------------------------]
 F[-----------------------------5-------------------------------]
 C[----2------------------------5----------------3--------------]
 G[---2------------------------3----------------3-------------]
 D[----0-----------------------------------------1--------------]

 (4x)
   Guitar 1 & 2
 d[-------------------------------------------------------]
 A[-----------------------------------------------------]
 F[----------------5-------------------------5------------]
 C[----2-----------5-----------2-------------5------3-----]
 G[---2-----------3-----------2-------------3------3----]
 D[----0-----------------------0--------------------1-----]

[ Tab from: http://www.guitartabs.cc/tabs/b/behemoth/decade_of_therion_tab.html ]
 (4x)
   Guitar 1
 d[-------------------------------------------------------------]
 A[-----------------------------------------------------------]
 F[----------------------9-9-9-10-10-10-------------------------]
 C[----------------9-9-9----------------10-10-10----------------]
 G[---7-7-7-7-7-7-------------------------------8-8-8-8-8-8---]
 D[-------------------------------------------------------------]
  |
  |Guitar 2
 d[-------------------------------------------------------------]
 A[-----------------------------------------------------------]
 F[-----------------------------5-------------------------------]
 C[----2------------------------5-------------------------------]
 G[---2------------------------3------------------------------]
 D[----0--------------------------------------------------------]

   Guitar 1
 d[-------------------------------------------------------------]
 A[-----------------------------------------------------------]
 F[----------------------9-9-9-10-10-10-------------------------]
 C[----------------9-9-9----------------10-10-10----------------]
 G[---7-7-7-7-7-7-------------------------------8-8-8-8-8-8---]
 D[-------------------------------------------------------------]
  |
  |Guitar 2
 d[-------------------------------------------------------------]
 A[-----------------------------------------------------------]
 F[-----------------------------5-------------------------------]
 C[----2------------------------5----------------3--------------]
 G[---2------------------------3----------------3-------------]
 D[----0-----------------------------------------1--------------]



BREAK:

 (3x)
   Guitars 1 & 2
 d[-----------------------------------------------------------]
 A[----------------------------------------------------------]
 F[-------------------------------9-9-9-9-9-------------------]
 C[----2-2-2-2-2--------2-2-2-2-2-9-9-9-9-9--------2-2-2-2-2--]
 G[---2-2-2-2-2--------2-2-2-2-2-7-7-7-7-7--------2-2-2-2-2--]
 D[----0-0-0-0-0--------0-0-0-0-0------------------0-0-0-0-0--]

 d[-----------------------------------------------------------]
 A[----------------------------------------------------------]
 F[--10-10-10-10-10-------------------------------------------]
 C[--10-10-10-10-10--------2-2-2-2-2--------------------------]
 G[---8--8--8--8--8--------2-2-2-2-2-------------------------]
 D[------------------------0-0-0-0-0-5--------8--------1------]


   Guitar 1
 d[-----------------------|----------------------]
 A[----------------------|----------------------]
 F[-----------------------|----------------------]
 C[-----------------------|----------------------]
 G[---2-2--7-7~------3-3-|-2-2--7~---2~---3~----]
 D[----0-0------------1-1-|-0-0------------------]
  |    PM_            PM_   PM_
  |
  |Guitar 2
 d[-----------------------|----------------------]
 A[-----------------------|---------------------]
 F[-----------------------|----------------------]
 C[-----------------------|----------------------]
 G[----2-2------------3-3-|-2-2------------3-3--]
 D[----0-0------------1-1-|-0-0------------1-1---]
       PM_            PM_   PM_            PM_


 d[-----------------------|----------------------]
 A[-----------------------|---------------------]
 F[-----------------------|----------------------]
 C[-----------------------|----------------------]
 G[----2-2--7-7~------3-3-|----5----8-----------]
 D[----0-0------------1-1-|----------------------]
  |    PM_            PM_
  |
  |Guitar 2
 d[-----------------------|----------------------]
 A[-----------------------|---------------------]
 F[-----------------------|----------------------]
 C[-----------------------|----------------------]
 G[----2-2------------3-3-|-----------3-3--2-2--]
 D[----0-0------------1-1-|-----------1-1--0-0---]
       PM_            PM_             PM______

   Guitars 1 & 2
 d[-----------------------------------------------------------]
 A[----------------------------------------------------------]
 F[-----------------------------------------------------------]
 C[----2-2-2-2-2--------2-2-2-2-2-2-2-2-2-2--------2-2-2-2-2--]
 G[---2-2-2-2-2--------2-2-2-2-2-2-2-2-2-2--------2-2-2-2-2--]
 D[----0-0-0-0-0--------0-0-0-0-0-0-0-0-0-0--------0-0-0-0-0--]

 d[--------------------------------------------------------------------]
 A[-------------------------------------------------------------------]
 F[--------------------------------------------------------------------]
 C[---2-2-2-2-2--------2-2-2-2-2-2-2-2-2-2-----------------2-2-2-2-2---]
 G[---2-2-2-2-2--------2-2-2-2-2-2-2-2-2-2-----------------2-2-2-2-2--]
 D[---0-0-0-0-0--------0-0-0-0-0-0-0-0-0-0-----------------0-0-0-0-0---]

 (1x)
   Guitars 1 & 2
 d[-----------------------------------------------------------]
 A[----------------------------------------------------------]
 F[-------------------------------9-9-9-9-9-------------------]
 C[----2-2-2-2-2--------2-2-2-2-2-9-9-9-9-9--------2-2-2-2-2--]
 G[---2-2-2-2-2--------2-2-2-2-2-7-7-7-7-7--------2-2-2-2-2--]
 D[----0-0-0-0-0--------0-0-0-0-0------------------0-0-0-0-0--]

 d[-----------------------------------------------------------]
 A[----------------------------------------------------------]
 F[--10-10-10-10-10-------------------------------------------]
 C[--10-10-10-10-10--------2-2-2-2-2--------------------------]
 G[---8--8--8--8--8--------2-2-2-2-2-------------------------]
 D[------------------------0-0-0-0-0-5--------8--------1------]


BREAK 2:

   Guitar 1 (1x) (In fact this is a tapping but you can do this, it's almost the same!)
 d[-------------------------------------------------------------]
 A[-----------------------------------------------------------]
 F[----------------9-9-9-9-9-9-10-10-10-------------------------]
 C[----------9-9-9----------------------10-10-10----------------]
 G[---7-7-7-------------------------------------8-8-8-8-8-8---]
 D[-------------------------------------------------------------]

 (2x)
   Guitar 1
 d[-------------------------------------------------------------]
 A[-----------------------------------------------------------]
 F[----------------------9-9-9-10-10-10-------------------------]
 C[----------------9-9-9----------------10-10-10----------------]
 G[---7-7-7-7-7-7-------------------------------8-8-8-8-8-8---]
 D[-------------------------------------------------------------]
  |
  |Guitar 2
 d[-------------------------------------------------------------]
 A[-----------------------------------------------------------]
 F[-----------------------------5-------------------------------]
 C[----2------------------------5-------------------------------]
 G[---2------------------------3------------------------------]
 D[----0--------------------------------------------------------]

   Guitar 1
 d[-------------------------------------------------------------]
 A[-----------------------------------------------------------]
 F[----------------------9-9-9-10-10-10-------------------------]
 C[----------------9-9-9----------------10-10-10----------------]
 G[---7-7-7-7-7-7-------------------------------8-8-8-8-8-8---]
 D[-------------------------------------------------------------]
  |
  |Guitar 2
 d[-------------------------------------------------------------]
 A[-----------------------------------------------------------]
 F[-----------------------------5-------------------------------]
 C[----2------------------------5----------------3--------------]
 G[---2------------------------3----------------3-------------]
 D[----0-----------------------------------------1--------------]


   Guitar 1
 d[-------------------------|-------------------------]
 A[------------------------|------------------------]
 F[--------10--9~~----------|--------10--9~~----------]
 C[----2---------------2-3--|--2---------------2-3----]
 G[---2---------------2-3--|--2---------------2-3---]
 D[----0---------------0-1--|--0---------------0-1----]
  |
  |Guitar 2
 d[---------------------------------------------------]
 A[-------------------------------------------------]
 F[----------------5-----------------------5----------]
 C[----2-----------5-----------2-----------5-----3----]
 G[---2-----------3-----------2-----------3-----3---]
 D[----0-----------------------0-----------------1----]



END (2x):

   Guitars 1 & 2
 d[----------------------------------------------------------]
 A[----------------------------------------------------------]
 F[----------------------------------------------------------]
 C[----------9-9-9---------10-10-10---------9-9-9------------]
 G[------7-7-----------8-8--------------7-7------------------]
 D[--0-0-----------0-0--------------0-0-----------0-1-3-1-3--]
                                                  PM_______

 d[----------------------------------------------------------]
 A[----------------------------------------------------------]
 F[----------------------------------------------------------]
 C[----------9-9-9---------12-12-12---------9-9-9------------]
 G[------7-7-----------8-8--------------7-7------------------]
 D[--0-0-----------0-0--------------0-0-----------0-1-3-1-3--]
                                                  PM_______
Comments