Behaviour - Rebirth Of The Mystic Man Chords & Tabs

 

Rebirth Of The Mystic Man Chords & Tabs

Behaviour Chords & Tabs

Version: 1 Type: Tab 0 ratings
1 star 2 stars 3 stars 4 stars 5 stars
comments

Rebirth Of The Mystic Man Tab


************************
REBIRTH OF THE MYSTIC MAN - - BEHAVIOUR
************************
 It's a fairly easy song, I'll give the tabs and walk through it.

************************************


(beginning played  with either one guitar or two playing the same thing)


E-------------------------------------------------------------------------------------------------------
B-------------------------------------------------------------------------------------------------------
G-------------------------------------------------------------------------------------------------------
D-------------------------------------------------------------------------------------------------------
A--14-14-14-14--14-14-14---12-12-12-12--12-12-12---10-10-10-10--10-10-10---7--7--7--7//-----------------
E--12-12-12-12--12-12-12---10-10-10-10--10-10-10---8--8--8--8---8--8--8----9--9--9--9///----------------



E-----------7-----------5-----------3--------------------------7-----------5-----------3----------------
B-------------------------------------------------------------------------------------------------------
G-------------------------------------------------------------------------------------------------------
D-------------------------------------------------------------------------------------------------------
A--7--7-7-7----5--5-5-5----3--3-3-3----2--2--2//------7--7-7-7----5--5-5-5----3--3-3-3----2--2--2//-----
E--9--9-9-9----7--7-7-7----5--5-5-5----4--4--4///-----9--9-9-9----7--7-7-7----5--5-5-5----4--4--4///----




(the part now breaks into guitar 1 and 2 [playing at the same time])


GUITAR 1
**********
[ Tab from: http://www.guitartabs.cc/tabs/b/behaviour/rebirth_of_the_mystic_man_tab.html ]
E-------------------------------------------------------------------------------------------------------
B-------------------16----------------16-----------------------16----------------16---------------------
G---------------17-----------------------15----------------17-----------------------15------------------
D---15--15--15------------15--15--15-----------15--15--15------------15--15--15-------------17----------
A----------------------------------------------------------------------------------------------16-------
E-------------------------------------------------------------------------------------------------15----


GUITAR 2
**********

E-------------------------------------------------------------------------------------------------15----
B----------------------------------------------------------------------------------------------16-------
G-------------------------------------------------------------------------------------------17----------
D-------------------------------------------------------------------------------------------------------
A-----------14--14--14------------14--14-14------------14--14--14------------14--14-14------------------
E---12--12----------------13--13----------------14--14---------------13--13-----------------------------


BOTH
**********

E----------------------------------------------------0--------------0-|
B-------------------------------------------------0-----------------0-|
G----------5--------3--------0-----------------0--------------------0-|
D-------5--------3--------0-----------------0-----------------------0-|
A----5--------3--------0-----------------0--------------------------0-|
E-------------------------------------0-----------------------------0-|
Comments