Behaviour - Crafty Chords & Tabs

 

Crafty Chords & Tabs

Behaviour Chords & Tabs

Version: 1 Type: Tab 0 ratings
1 star 2 stars 3 stars 4 stars 5 stars
comments

Crafty Tab

*********************
CRAFTY - - BEHAVIOUR
*********************


E---------------------------------------------------------------------3--5--7-------
B-----------------------------------------------------------------------------------
G-----------------------------------------------------------------------------------
D-----------------------------------------------------------------------------------
A-----------------------------------------------------------------------------------
E--3--5--7--8--3--8--3--8--3--8--3--5--7--8--3--8--3--8--3--8--5--7-----------------


E--8-8-8-8-3-3-3-3-8-8-8-8-3-3-3-3--8--3--8-----------------------------------------
B-----------------------------------------------------------------------------------
G-----------------------------------------------3-5-7-------------------------------
D------------------------------------------------------3-5-7------------------------
A-------------------------------------------------------------3-5-7-----------------
E--------------------------------------------------------------------3-5-7-8--3--8--


E----------3--3--3------3-----------------------------------------------------------
B------------------------5----------------------------------------------------------
G-------------------------7---------------------------------------------------------
D--8--8-8------------------8--------------------------------------------------------
A---------------------------8--8-8--------------------------------------------------
E------------------------------------8--3--8--3--8--3--5--7--8--8-8--3-3-3--8---3--3

[ Tab from: http://www.guitartabs.cc/tabs/b/behaviour/crafty_tab.html ]
E-------0--0-------0---0-------------8---0--0-------------0--0---0--------0-0-0--0--
B------0----0------0---0-----------8-----8--3-----------8----3----0-------0-8-3--0--
G-----0------0-----0---0---------8-------7--5---------7------5-----0------0-7-5--0--
D----0--------0----0---0-------7---------5--7-------5--------7------0-----0-5-7--0--
A---0----------0---0---0-----5-----------3--8-----3----------8-------0----0-3-8--0--
E--0------------0--0---0---3-------------0--0---0------------0--------0---0-0-0--0--


E----------------3--5--7--8----------------------0---------0------------------------
B-----------------------------------------------8-8--------0------------------------
G--3--5--7--8----------------------------------7---7-------0------------------------
D---------------------------------------------5-----5------0------------------------
A--------------------------------------------3-------3-----0------------------------
E-------------------------------3--5--7--8--0---------0----0----3----5----7----8----


E--3----5----7----8----12------------------------------------------------------0----
B------------------------------------------------------------------------------0----
G------------------------------------------------------------------------------0----
D------------------------------------------------------------------------------0----
A------------------------------------------------------------------------------0----
E----------------------------3--5--7--8--3--8--3--8--3--8--3--5--7--8----12----0----


E-------------------------3--5--7--8/////-------------------------------------------
B-----------------------------------------------------------------------------------
G-----------------------------------------------------------------------------------
D--------------3---5---7------------------------------------------------------------
A-----------------------------------------------------------------------------------
E--3---5---7-----------------------------3--5--7--8-8-8-3-3-3-8-8-8-3-3-3-8--3--8--3


E-------------------------------0--------0---|
B-----------------------------0----------0---|
G---------------------------0------------0---|
D-------------------------0--------------0---|
A-----------------------0----------------0---|
E--0------------------0------------------0---|



	THAT'S ALL THERE IS TO IT.  IT IS FUN WHEN PLAYED FASTER, BUT WHEN PLAYED SLOW IT
SOUNDS A BIT . . . EMPTY.  YOU MUST CONSIDER THE FACT THAT THERE'S ALSO A BASS AND DRUMS.
ALL IN ALL, THIS IS AS CLOSE TO PERFECT I'M GONNA GET AT MAKING THE TAB FOR IT.
Comments