Before Today - Staring At Backgrounds Chords & Tabs

 

Staring At Backgrounds Chords & Tabs

Before Today Chords & Tabs

Version: 1 Type: Tab 0 ratings
1 star 2 stars 3 stars 4 stars 5 stars
comments

Staring At Backgrounds Tab

-BEFORE TODAY "STARING AT BACKGROUNDS"(intro)
-by ARONW


For the intro use these finger patters, and listen to the song for the strumming.
(Play this part 2X)
E|0--0--0--0--0--0--0--0--4--0--0--0----|
B|5--0--4--0--5--0--4--0--0--0--5--0----|
G|6--6--6--6--6--6--6--6--6--6--6--6----|
D|6--6--6--6--6--6--6--6--6--6--6--6----|
A|0--0--0--0--0--0--0--0--0--0--0--0----|
E|--------------------------------------|
(also played 2X)
[ Tab from: http://www.guitartabs.cc/tabs/b/before_today/staring_at_backgrounds_tab.html ]
(guitar 2 during this part)Learn the timeing by listening to the song
E|--------------------------------------|
B|----7-5-------------------------------|
G|6-4-----6-4---------------------------|
D|--------------------------------------|
A|--------------------------------------|
E|--------------------------------------|

E|--------------4---------------4-(stum this a little bit)-|
B|--------------5---------------5--------------------------|
G|--------------6---------------6--------------------------|
D|--------------6---------------6--------------------------|
A|(Muted-0-0-0)-0-(Muted-0-0-0)-0--------------------------|
E|---------------------------------------------------------|
(play both of these 2X together)

E|5--4--0--0--------------------------|
B|0--0--5--5--------------------------|
G|6--6--6--6--------------------------|
D|6--6--6--6---------------6--4--6----|
A|0(let this string ring)--0--0--0----|
E|------------------------------------|
And There You Have It, The First 19 Seconds of the song(if ur listenin to the old 
other wise its the first 17 seconds
Comments