Before Today - Process Of Losing And Gaining Chords & Tabs

 

Process Of Losing And Gaining Chords & Tabs

Before Today Chords & Tabs

Version: 1 Type: Tab 0 ratings
1 star 2 stars 3 stars 4 stars 5 stars
comments

Process Of Losing And Gaining Tab

-BEFORE TODAY  "THE PROCESS OF LOSING AND GAINING"
-by SINGLECUT


Fig 1:(Play twice)
E-------------------------------------------------------------|
B-------------------------------------------------------------|
G----0--------------------0~-----0----------------0-----------|
D------5---5h7p5--------5----0-----2---5p4----------4---7~----|
A--7-----7-------7~---7--------3-----3------3-3/5-----5-------|
E-------------------------------------------------------------|

Then changes to:
E--------------------------------------------------------------|
B--------------------------------------------------------------|
G----0------------0---------------0----------------0-----------|
D------9---10p9-----9----10-9~------2---5p4----------4---7~----|
A--7-----7------7-----7---------3-----3------3-3/5-----5-------|
E--------------------------------------------------------------|

Second guitar: (All harmonics)
E--7*---------|--5*-------7*----------7*----|
B-------------|-----5*-------7*----7*-------|
G-----5*--7*--|--------5*-------7*----------|
D-------------|-----------------------------|
A-------------|-----------------------------|
E-------------|-----------------------------|


Figure 2:
E---------------|---------------------------------------|
B---------------|---------------------------------------|
G--7----5----4--|-----------12-----------12-------12----|
D--5----5----5--|---------------------------------------|
A--3----3----3--|-----------10-----------10-------10----|
e---------------|--0-0-0-0------0-0-0-0------0-0--------|

E-----------------------|---------------------------------------|
B-----------------------|---------------------------------------|
G------7~------7-5-4~---|-----------12-----------12-------12----|
D----5-------5----------|---------------------------------------|
A--3-------3------------|-----------10-----------10-------10----|
E-----------------------|--0-0-0-0------0-0-0-0------0-0--------|


( Second Guitar )

E------2~------2-0------|-------------------------------------|
B------------------3~---|-------------------------------------|
G-----------------------|-----------9-----------9--------9----|
D----5-------5----------|-----------x-----------x--------x----|
A--3-------3------------|-----------7-----------7--------7----|
E-----------------------|--0-0-0-0-----0-0-0-0------0-0-------|

Then:
E---------------------------------|
B---------------------------------|
G--5----4----7----7----9----11----|
D--5----5----5----x----x----x-----|
A--3----3----3----5----7----9-----|
E---------------------------------|


Figure 3:

E-------0----3----2p0----|
B-------5----5----5------|
G--0-0----0----0---------|
D------------------------|
A------------------------|
E------------------------|

Second Guitar:

E-------------|
B-------------|
G--5~---------|
D--5~--2-2----|
A--3~--2-2----|
E------0-0----|


Figure 4:

Repeat several times Repeat 2x:
E-----------------------------------|----2---0---3------2---0---3----|
B-----------------------------------|----5---5---5------5---5---5----|
G--4-4----------4-4-4---------------|--0---0---0------0---0---0------|
D--2-2--5-5-5---2-2-2--5-5-5--------|--------------------------------|
A-------3-3-3----------3-3-3--------|--------------------------------|
E-----------------------------------|--------------------------------|
(Palm muted)


Second Guitar:

E--------------------------------------------------------|--------------|
B--------------------------------------------------------|--------------|
G----------------------------4-4-4--4-4-4--4-4-4--4-4-4--|--------------|
D--5-5--5-5-5--5-5-5--5-5-5--5-5-5--5-5-5--5-5-5--5-5-5--|--2--2--2--2--|
A--3-3--3-3-3--3-3-3--3-3-3--2-2-2--2-2-2--2-2-2--2-2-2--|--2--2--2--2--|
E--------------------------------------------------------|--0--0--0--0--|
(Palm Muted)

Figure 5:

E-------------|-----------------|-------------------------------------------|
B-------------|-----------------|-------------------------------------------|
G--5--4--9----|--5--4--9--11----|------4-5-5/7-5-4--------11-11------11-11--|
D--5--5--9----|--5--5--9--------|----5-------------5------------------------|
A--3--2--7----|--3--2--7--9-----|--3----------------------9--9-------9--9---|
E-------------|-----------------|---------------------0-0--------0-0--------|
[ Tab from: http://www.guitartabs.cc/tabs/b/before_today/process_of_losing_and_gaining_tab.html ]
E-------------------------------------------|---------------------|
B-------------------------------------------|--------------8-7----|
G------4-5-5/7-5-4--------11-11------11-11--|------4-5-5/7-----7--|
D----5-------------5------x--x-------x--x---|----5----------------|
A--3----------------------9--9-------9--9---|--3------------------|
E---------------------0-0--------0-0--------|---------------------|

E------------------------------------------------------|
B------------------------------------------------------|
G----------4h5-4---------------------------------------|
D----4-5-7-------5-4--5--5-5-5--5-5-5--5-5-5--5-5-5----|
A--5------------------3--3-3-3--3-3-3--3-3-3--3-3-3----|
E------------------------------------------------------|
Palm muted > * * * * * * *

Repeat fig 4

E-----------------|--------------|--------------|
B-----------------|--------------|--------------|
G--5--4--9~--9----|--12--7--4----|--5--12--11---|
D--5--5--9~--9----|--x---x--x----|--5--x---x----|
A--3--2--7~--7----|--10--5--2----|--3--10--9----|
E-----------------|--------------|--------------|

Still working on the part that comes right after this...

Back to intro

2nd guitar:
Second time end on:

E----------------------------------------------5-7p5---10-8-7-5--|--10-8-7----|
B----------------------------------------5h7h8-------8-----------|---------8--|
G------7/9-7------------7/9--7-----------------------------------|------------|
D----5-------9-7h9----5--------9--7h9----------------------------|------------|
A--7----------------7------------------7-------------------------|------------|
E----------------------------------------------------------------|------------|

E----------------------|----------------|
B--8----7----5----7----|----------------|
G--9----7----5----7----|----------------|
D--x----x----x----x----|--5--5-5--4~----|
A--7----5----3----5----|--7--7-7--5~----|
E----------------------|----------------|


E----------------------------------|---------------------------|
B----------------------------------|---------------------------|
G----------------------------------|---------------------------|
D--5--5-5----/9-7----7-------------|--5--5-5--4--/7--5--4h5----|
A--7--7-7---------10---10-9-\10----|--7--7-7--5----------------|
E----------------------------------|---------------------------|

E----------------------------------------|
B--8-8-8-8--7-7-7-7--5-5-5-5--4-4-4-4----|
G--9-9-9-9--7-7-7-7--5-5-5-5--4-4-4-4----|
D----------------------------------------|
A----------------------------------------|
E----------------------------------------|

E-------------------------------------------------|
B--12----12----10----10----13---13---12---12------|
G-----12----12----11----11----9----9----8----8----|
D-------------------------------------------------|
A-------------------------------------------------|
E-------------------------------------------------|

E------------------------------------------------------------------------|
B------------------------------------------------------------------------|
G--12p9--12p9--12p9--12p9--11p7--11p7--11p7--11p7--9p5--9p5--9p5--9p5----|
E------------------------------------------------------------------------|
A------------------------------------------------------------------------|
E------------------------------------------------------------------------|


1st time end with this:
E-------------------------------|
B-------------------------------|
G--9h11----11----9h11----11-----|
D-------12------------12--------|
A-------------------------------|
E-------------------------------|

2nd time end with this:

E----------------|--0--2h3p2h3h5----|
B----------------|------------------|
G--9--7--5--4----|------------------|
D--x--x--x--x----|------------------|
A--7--5--3--2----|------------------|
E----------------|------------------|
^ 6
times

E--3p2p0--|--5p3p0--|--7p5p0--|
B---------|---------|---------|
G---------|---------|---------|
D---------|---------|---------|
A---------|---------|---------|
E---------|---------|---------|
16 times^ 8 times^ 12 times^


Ill write out the part right after this later too(takes too long to write out all those chords)

Heres the outro:

E----------------------------------------------------------------------------|
B----------------------------------------------------------------13-12-------|
G--9-----9------11------11--------12-7---12-11-------------------------12----|
D----9-------9-----9----------9--------9-------12-7--11h12-11----------------|
A------7---7---------10----10---------------------------------12-------------|
E----------------------------------------------------------------------------|

E--15-14--------------------------------------|
B--------15-12--13-12--13~-12~-10~-13~-12~----|
G---------------------------------------------|
D---------------------------------------------|
A---------------------------------------------|
E---------------------------------------------|
Comments