Beer Softened Stool - Rat Whacker Chords & Tabs

 

Rat Whacker Chords & Tabs

Beer Softened Stool Chords & Tabs

Version: 1 Type: Tab 0 ratings
1 star 2 stars 3 stars 4 stars 5 stars
comments

Rat Whacker Tab

   
#----------------------------------PLEASE NOTE--------------------------------#
#This file is the author's own work and represents their interpretation of the#
#song. You may only use this file for private study, scholarship, or research.#
#-----------------------------------------------------------------------------#

Date: Wed, 01 Apr 1998 12:45:54 -0500
From: "Brian j. dawson" 
Subject: PRO: Rat Whacker by Beer Softened Stool

tabbed by dawsonbr@zebu.cvm.msu.edu
Rat Whacker by Beer Softened Stool
from the EP "Diaper Nuggets"

Tune low E down a whole step to "D"

riff 1

-|------------------------------------------------------------------|
-|------------------------------------------------------------------|
-|------------------------------------------------------------------|
-|-3p-0-0-3p-0-0--3p-0-5p-0-0-5p-0-0-5p-0-6p-0-0-6p-0-0-6p-0-5p-0-0-|
-|------------------------------------------------------------------|
-|------------------------------------------------------------------|

------------------|
------------------|
------------------|
---5p-0-0-5p-0----|
------------------|
------------------|

riff 2
[ Tab from: http://www.guitartabs.cc/tabs/b/beer_softened_stool/rat_whacker_tab.html ]
-|------------------------------------------------------------------|
-|------------------------------------------------------------------|
-|------------------------------------------------------------------|
-|------------------------------------------------------------------|
-|-3p-0-0-3p-0-0--3p-0-5p-0-0-5p-0-0-5p-0-6p-0-0-6p-0-0-6p-0-5p-0-0-|
-|-3p-0-0-3p-0-0--3p-0-5p-0-0-5p-0-0-5p-0-6p-0-0-6p-0-0-6p-0-5p-0-0-|


------------------|
------------------|
------------------|
------------------|
---5p-0-0-5p-0----|
---5p-0-0-5p-0----|   repeat riff 1 4x  then  riff2 4x end on [D] chord

riff3
-|----------------------------------|
-|----------------------------------|
-|----------------------------------|
-|----------------------------------|
-|-3-2-0-3-2-0-3-2-0-3-3-0----------|
-|-3-2-0-3-2-0-3-2-0-3-3-0----------|

[D]CHlorine gas and a severed [F] spine
[D]Lidocaine it works just [F]
[D]Whack em stack mmmm lets [F] dine
[D]The rat must die before its time

{chorus}
[G]Go rat whacker! Go rat whacker!
[D] riff 3
[G]Go rat whacker! Go rat whacker!
[A]

[D]Ehter in a buuter [F] dish
[D]I will grant your final [F] wish
[D]Dr. Death for rodent [F]kind
[D]Your headless corpse it looks just fine

{chorus}
solo

[D] Tried to drown that bumpy [F] prick
[D] he turned on me and bit me [F] back
[D] My pruning shears they did the [F] trick
[D] now he's in the garbage sack

{chorus}
Comments