Beef 2k - Salut To Spain Chords & Tabs

 

Salut To Spain Chords & Tabs

Beef 2k Chords & Tabs

Version: 2 Type: Tab 0 ratings
1 star 2 stars 3 stars 4 stars 5 stars
comments

Salut To Spain Tab

Beef 2k, Salut to Spain
 Tabbed by Antonio Berumen, guitarman91763@hotmail.com

E|-------------------------------------|
B|-------------------------------------|
G|-111--222-444-222--------------------| repeat
D|-222--333-555-333--------------------|
A|-222--333-555-333--------------------|
E|-------------------------------------|


E|-------------------------------------|
B|-------------------------------------|
G|-11--22--11--------------------------|
D|-22--32--22--------------------------|
A|-22--33--22--------------------------|
E|-------------------------------------|

[ Tab from: http://www.guitartabs.cc/tabs/b/beef_2k/salut_to_spain_tab_ver_2.html ]
E|-0-1-3-1-0-----------------------------------|
B|-----------3-1-0-----------------------------|
G|-----------------1---------------------------|
D|-----------------2---------------------------|
A|-----------------2---------------------------|
E|---------------------------------------------|

             This part is finger picking
E|----------|---0-----0---0--|---0-----0---0---|
B|----------|-----------0----|-----------1-----|
G|-111-222--|-----1----------|-----2-----------|
D|-222-333--|-2--------------|-2---------------|
A|-222-333--|----------------|-----------------|
E|----------|----------------|-----------------|
                    2x               2x


E|---------------------------------------------|
B|---------------------------------------------|
G|-111--222-444-222----------------------------|
D|-222--333-555-333----------------------------|
A|-222--333-555-333----------------------------|
E|---------------------------------------------|
Comments